» » »

In One Ear Tabs (ver.4)

Artists:  A B C D E F G H I J K L M N O P Q R S T U V W X Y Z # 

In One Ear Tabs (ver.4)

Cage The Elephant
Rating:
3/5 (4 votes)

Hard to play? Try these video lessons and learn fast.
                this song originally made by cage the elephant i will be using the album version i do 
completely recommend this version to an acoustic  but generously to and electric guitar.

intro- along with the high hat of a drum ofcourse slowly play this
_______________________________________________________________________
RHYTHM

e)-------------------------------------------------------------|
B)-------------------------------------------------------------|
G)000-00334444-00-0334444--------------------------------------|
D)000-00334444-00-0334444--------------------------------------|
A)-------------------------------------------------------------|
E)-------------------------------------------------------------|

LEAD

e)-------------5h-7/999-7-------5---5----7/999-7---------------|
B)5-7------5-7-----------9-7------7---7----------9-7-----------|
G)--------------------------9-----------------------9----------|
D)-------------------------------------------------------------|
A)-------------------------------------------------------------|
E)-------------------------------------------------------------|
________________________________________________________________________
no there is a part bridging the intro to the lyrics plaid by lead

e)-------------------------------------------------------------|
B)---0220-220-220-----0-0003-0-0005-0-0003-5--55/3-------------|
G)-------2---2---2-4--0-0003-0-0005-0-0003-5--55/3-------------|
D)-------------------------------------------------------------|
A)-------------------------------------------------------------|
E)-------------------------------------------------------------|
                      They say that we...
________________________________________________________________________
the chorus is played as the rhythm's intro is on lead and guitar


this is but a little bit and i made this literally 15 minutes after its discovery all 
now
            
Hard to play? Try these video lessons and learn fast. | Correct




comments powered by Disqus
↑ Back to top | Tablatures and chords are parodies/interpretations of the original songs. You may use it for private study, scholarship, research or language learning purposes only