» » »

Cage The Elephant, Indy Kidz Tabs (ver.1)

Artists:  A B C D E F G H I J K L M N O P Q R S T U V W X Y Z # 

Indy Kidz Tabs (ver.1)

Cage The Elephant Tabs
 Rating:
4/5 (4 votes)
Indy Kidz lessons Tabs too difficult? Try these video lessons and learn fast
1
                



 
Cage the Elephant 
Thank You Happy Birthday

Intro: 

e|------------------| 
B|------------------|
G|-6---45464--------|
D|-6~---------------|
A|-4----------------|
E|------------------|

Verse:
Guitar 1:                       Then:
e|--------------------|  |----------------------|
B|--------------------|  |----------------------|
G|--------------------|  |-7--5--7---555555-----|
D|-5------------------|x1|-7~-5~-7~--555555-----|
A|-5~-x1------654-----|  |-5--3--5---333333-----|
E|-3-----3456-----3-x2|  |----------------------|

Guitar 2:

e|----xx---------xx-----| 
B|----xx---------xx-----|
G|--5-xx-5-----7-xx-7---|
D|--6-xx-6-x4--8-xx-8-x4|x5
A|--4-xx-4-----6-xx-6---|
E|----xx---------xx-----|




Bridge:
Guitar 1:
e|-----------------------------------------------------------| 
B|-----------------------------------------------------------|
G|7777-5555----------------6666-5555-----7777777777----------|
D|7777-5555-x2---7777-6666-6666-5555-----7777777777----------|
A|5555-3333------7777-6666-4444-3333-x2--5555555555----------|
E|---------------5555-4444-----------------------------------|



Guitar 2:

e|------------------------------------------------------| 
B|---------------654-----11p11p11p11p-9p9p9p9p----------|
G|-----654----------------------------------------------|
D|------------------------------------------------------|
A|------------------------------------------------------|
E|-3456----3-3456----3----------------------------------|





Verse 2:
Guitar 1:
e|---------------------------------------------| 
B|-55-7-5-55-7-5-------------------------------|
G|-55-7-5-55-7-5-x2------------6666-5555-------|
D|-------------------7777-6666-6666-5555-------|
A|-------------------7777-6666-4444-3333-x3----|
E|-------------------5555-4444-----------------|

Guitar 2:

e|-------------------------------------------| 
B|-------------------------------------------|
G|----5---5---5---5----7---7----7--7---------|
D|----5---5---5---5----7---7----7--7---------|
A|----5---5---5---5----7---7----7--7---------|
E|--333-333-333-333--555-555--555-55---------|

Bridge 2:
Guitar 1
e|-------------------------------------| 
B|-------------------------------------|
G|--7654--------------5/7-5-8p--8------|
D|-------5757575757----------------7---|
A|---------------------------------7~--|
E|---------------------------------5---|
            
Submit corrections

comments powered by Disqus
↑ Back to top | Cage The Elephant Tabs for Indy Kidz. Lyrics for acoustic guitar and electric guitar. 1 Tablatures and chords are parodies/interpretations of the original songs. You may use it for private study, scholarship, research or language learning purposes only