>
 >
Free Love

Free Love Guitar Tabs

Cage The Elephant - Free Love chords, tabs, tablatures, lyrics

Guitar lessons | Add/correct | Request | Top 50 tabs Artists:  A B C D E F G H I J K L M N O P Q R S T U V W X Y Z 0-9

Free Love Guitar Tabs – Cage The Elephant

CD, Sheet music, Poster

Do you like Free Love? Share with your friends now
Tabs
 
Cage the Elephant
Cage the Elephant

Intro:
                        (Strum A Lot)
e|------------------------------------------| 
B|------------------------------------------|
G|-12---9--9--12----------13-14-15-16-15b---|
D|-12~--11-11-12-x3-------x--x--x--x--x-----|
A|-10---11-11-10----------11-12-13-14-17b---|
E|------------------------------------------|
Verse:
Those are 11s not 1s
e|------------------------------------------| 
B|------------------------------------------|
G|-12----11-12-----11-12----12121212121212--|
D|-12~---11-12-x1--11-12-x3-12121212121212--|
A|-10----99-10-----99-10----10101010101010--|
E|------------------------------------------|

Chorus:
e|------------------| 
B|------------------|
G|-13-14-15-16------|
D|-x--x--x--x-------|
A|-11-12-13-14------|
E|------------------|

Bridge:
Pick a lot
e|------------------| 
B|------------------|
G|-12-13-14-15-16---|
D|------------------|
A|------------------|
E|------------------|

Bridge 2:

Guitar 1                
e|------------xxxxxxxxxxxxxxxx--------------------------| 
B|------------xxxxxxxxxxxxxxxx-------------777777-------|
G|------------xxxxxxxxxxxxxxxx---777-6b----777777-------|
D|------------xxxxxxxxxxxxxxxx---777---x3---------------|
A|-77777-x12---------------------555--------------------|
E|------------------------------------------------------|
                          





Second Guitar:
e|------------------------------------------------------------------------------|
B|------------------------------------------------------------------------------|
G|----------------------------------------------------------77777777777777------|
D|-757575757575757575-97979797979797-119119119119119119-x3--77777777777777------|
A|----------------------------------------------------------55555555555555------|
E|------------------------------------------------------------------------------|
Solo:

e|------------------------------------------------------------------------------------| 
B|-8b---8b---8b---------8b---8b---8b----12p12p12p12p12p12p---10b-10b-10b--------------|
G|-8b-7-8b-7-8b-7-65-x3-8b-7-8b-7-8b-7--------------------------9---9---9-8p8b8p8b8p8b|
D|------------------------------------------------------------------------------------|
A|------------------------------------------------------------------------------------|
E|------------------------------------------------------------------------------------|

e|-------------------------------------| 
B|------10b-10b-10b--------------------|
G|-8765----9---9---9-8p8b8p8b8p8b8p--87|
D|-------------------------------------|
A|-------------------------------------|
E|-------------------------------------|

Guitar 2 scratches strings throughout solo





Comments


Popular Cage The Elephant tabs & chords
Autumn Breeze Bass Tabs
In One Ear Bass Tabs
Lotus Bass Tabs
Shake Me Down Bass Tabs
Shake Me Down 1 Chords
Back Against The Wall 1 Drum Tabs
Always Something Tabs
Sell Yourself Tabs
Aint No Rest For The Wicked Ukulele
Aint No Rest For The Wicked 2 Ukulele


Song lyrics



↑ Back to top | Tablatures and chords are parodies/interpretations of the original songs. You may use it for private study, scholarship, research or language learning purposes only
© 2014 AZChords.com Contact us | Privacy policy | DMCA | Add/correct tabs | Request tabs | Top 50 tabs