>
 >
Flow 3

Flow 3 Guitar Tabs

Cage The Elephant - Flow 3 chords, tabs, tablatures, lyrics

Guitar lessons | Add/correct | Request | Top 50 tabs Artists:  A B C D E F G H I J K L M N O P Q R S T U V W X Y Z 0-9

Flow 3 Guitar Tabs – Cage The Elephant

CD, Sheet music, Poster

Do you like Flow 3? Share with your friends now
TabsTabs v2Tabs v3Tabs v4
-------------------------------------------------------------------------------
-------------------------------------------------------------------------------
Music by: Brad and Matt Shultz, Daniel Tichenor, Jared Champion, Lincoln Parish

Tuning: EADGBe

The other tabs are missing the second guitar part and a lot of the other notes.
This one is a lot more accurate and is what they play live, for the most part.
In the interlude I think there is a third acoustic guitar playing, but I think
it's just playing guitar 1 without the bass notes (open 5th string). The outro
is roughly accurate. Check out their live performance at Reading 2011:


Intro: Guitar 1
e|---------------------------|-----------------------------| x2
B|--7--7-----5--7--10--10----|--7-----7-----5--7--5--2-----|
G|---------------------------|-----------------------------|
D|---------------------------|-----------------------------|
A|--0-----0--0--0-------0--0-|--0--0-----0--0-----0--0--0--|
E|---------------------------|-----------------------------|

Intro: Guitar 2
e|---------------------------|-----------------------------| x2
B|---------------------------|-----------------------------|
G|---------------------------|-----------------------------|
D|--11-----------------------|--11-------------------------|
A|---0-----------------------|---0-------------------------|
E|---------------------------|-----------------------------|

Verse: Guitar 1
e|--5-----------------5------|--5-------------------5------|
B|--7--------------------7---|--7----------------------7---|
G|--6------------------------|--6--------------------------|
D|--7------------------------|--7--------------------------|
A|--0------------------------|--0--------------------------|
E|---------------------------|-----------------------------|

Verse: Guitar 2
e|---------------------------|-----------------------------|
B|---------------------------|-----------------------------|
G|---------------------------|-----------------------------|
D|-11-------------14---------|-11-------------14-----------|
A|--0--------------0---------|--0--------------0-----------|
E|---------------------------|-----------------------------|

Chorus: Guitar 1 (after the second time, repeat the last bar)
e|------------------|---------------------|-----------------|-----------------------| x2
B|--5-------3-------|-0h2-2-----0h2-2-----|-5-------3-------|-0h2--2-----0h2--2-----|
G|------------------|---------------------|-----------------|-----------------------|
D|------------------|---------------------|-----------------|-----------------------|
A|--0-0-0-0-0-0-0-0-|-0-----0-0-0-----0-0-|-0-0-0-0-0-0-0-0-|-0------0-0-0------0-0-|
E|------------------|---------------------|-----------------|-----------------------|

Chorus: Guitar 2 (these can be alternated to match up with different bars on guitar 1)
e|------------------|---------------------|-----------------|-----------------------| x2
B|------------------|---------------------|-----------------|-----------------------|
G|------------------|---------------------|-----------------|-----------------------|
D|---11-------11----|---11--------11------|-11--------------|-9h11-11----9h11-11----|
A|-0--------0-------|-0---------0---------|--0--------------|-0----------0----------|
E|------------------|---------------------|-----------------|-----------------------|

Interlude: Guitar 1
e|-----9---------7-----|-----5-----------5-------|-----9---------7-----|-----5-----------5-------|
B|-7-------7---5-------|-5h7-----7---5h7-----7---|-7-------7---5-------|-5h7-----7---5h7-----7---|
G|---------------------|-------------------------|---------------------|-------------------------|
D|---------------------|-------------------------|---------------------|-------------------------|
A|-0-0---0---0-0---0-0-|-0---------0-0---0-----0-|-0-0---0---0-0---0-0-|-0---------0-0---0-----0-|
E|---------------------|-------------------------|---------------------|-------------------------|

e|-7-7-----9---9------|-7----------9----12-----|-----------------------|-------------------------|
B|--------------------|------------------------|-7---7-----10---10-----|-7---7------12------2----|
G|--------------------|------------------------|-----------------------|-------------------------|
D|--------------------|------------------------|-----------------------|-------------------------|
A|-0---0-0-0-0---0-0--|----0---0-0-0-0------0--|---0---0-0----0----0-0-|---0---0-0------0---0-0--|
E|--------------------|------------------------|-----------------------|-------------------------|

Interlude: Guitar 2
e|---------------------|-------------------------|---------------------|-------------------------|
B|---------------------|-------------------------|---------------------|-------------------------|
G|---------------------|-------------------------|---------------------|-------------------------|
D|-9h11-11----9h11-11--|-9h11-11--11-9h11-11-11--|-9-------------------|-9-----------------------|
A|-0----------0--------|-0-----0---0-0-----0--0--|-0-------------------|-0-----------------------|
E|---------------------|-------------------------|---------------------|-------------------------|

e|---------------------|-------------------------|---------------------|-------------------------|
B|---------------------|-------------------------|---------------------|-------------------------|
G|---------------------|-------------------------|---------------------|-------------------------|
D|-9h11--11------------|--------------11/14--14--|-11------------------|-11----------------------|
A|-0------0------------|-------------------------|--0------------------|--0----------------------|
E|---------------------|-------------------------|---------------------|-------------------------|

Outro: Guitar 1                                            
e|-----------------------------------------| x7
B|-5/7------10---12/---5----5--7/2--2/5--0-|
G|-----------------------------------------|
D|-----------------------------------------|
A|-0-0-------0------0--0----0--0-0--0-0--0-|
E|-----------------------------------------|

Outro: Guitar 2   
e|-----------------------------------------| x7
B|-----------------------------------------|
G|-----------------------------------------|
D|-11-11---14----14-14--11---14-----14-----|
A|--0--------------------0-----------------|
E|-----------------------------------------|


These are all the parts. Enjoy!





Comments


Popular Cage The Elephant tabs & chords
Aberdeen 2 Bass Tabs
Aberdeen 4 Bass Tabs
Drones In The Valley 1 Bass Tabs
Ain't No Rest For The Wicked Chords
In One Ear Chords
Right Before My Eyes Chords
Aberdeen Tabs
Back Against The Wall 1 Tabs
In One Ear Tabs
Shake Me Down 1 Tabs


Song lyrics



↑ Back to top | Tablatures and chords are parodies/interpretations of the original songs. You may use it for private study, scholarship, research or language learning purposes only
© 2014 AZChords.com Contact us | Privacy policy | DMCA | Add/correct tabs | Request tabs | Top 50 tabs