» » »

Back Stabbin Betty Bass tabs (ver.2)

Artists:  A B C D E F G H I J K L M N O P Q R S T U V W X Y Z # 

Back Stabbin Betty Bass tabs (ver.2)

Cage The Elephant
Rating:
0/5 (0 votes)
Tabs too difficult? Try these video lessons and learn fast.
                The tab that was on here was correct, for the basic parts.
The timing was WAY off, its like he never listened to the song.
I corrected it, and added the ending.
Enjoy!

00:00 to 1:16
G---------------------------------------|
D---------------------------------------|
A-----------------------------3-5-------|
E-5-5-0-3-5-5-0-3-5-5-0-3-5-5-----------| x17



at 1:17
G-------------------------|
D-------------------------|
A-5-5-5-5-5-5-5-5-----3-5-|
E-----------------3-5-----| x2

1:18-2:13
G---------------------------------------|
D---------------------------------------|
A-----------------------------3-5-------|
E-5-5-0-3-5-5-0-3-5-5-0-3-5-5-----------| x11

2:14-2:22
G-------------------------|
D-------------------------|
A-5-5-5-5-5-5-5-5-----3-5-|
E-----------------3-5-----| x2

2:23-3:18
G---------------------------------------|
D---------------------------------------|
A-----------------------------3-5-------|
E-5-5-0-3-5-5-0-3-5-5-0-3-5-5-----------| x13

3:19-3:32
G-------------------------|
D-------------------------|
A-5-5-5-5-5-5-5-5-----3-5-|
E-----------------3-5-----| x2

3:33-end

G-------------------------|
D-------------------------|
A-------------------------|
E-----9---7---4-3---------|
            
Tabs too difficult? Try these video lessons and learn fast.


comments powered by Disqus
↑ Back to top | Tablatures and chords are parodies/interpretations of the original songs. You may use it for private study, scholarship, research or language learning purposes only