» » »

Back Against The Wall Bass tabs (ver.1)

Artists:  A B C D E F G H I J K L M N O P Q R S T U V W X Y Z # 

Back Against The Wall Bass tabs (ver.1)

Cage The Elephant
Rating:
5/5 (15 votes)

Hard to play? Try these video lessons and learn fast.
                Repeat each section as necessary.

INTRO/VERSE 1
# Tonight I'll have a look and...
   1+2+3+4+   1+2+3+4+
G|----------|----------|
D|----------|-4--------|
A|----------|-----4-2--|
E|-4-----2--|----------|

BRIDGE
# You've got me where you want me...
   1+2+3+4+   1+2+3+4+   1+2+3+4+   1+2+3+4+
G|----------|----------|----------|----------|
D|----------|----------|----------|-4444-----|
A|----------|-22224444-|----------|-----4444-|
E|-44444444-|----------|-44444444-|----------|

   1+2+3+4+   1+2+3+4+   1+2+3+4+   1+2+3+4+
G|----------|----------|----------|----------|
D|----------|----------|----------|-4444-----|
A|----------|-22224444-|----------|-----442--|
E|-44444444-|----------|-44444444-|----------|

VERSE 2
# Blanket of silence makes me want...
   1+2+3+4+   1+2+3+4+
G|----------|----------|
D|----------|-4--------|
A|----------|-----4-2--|
E|-4-----2--|----------|

BRIDGE
# You've got me where you want me...
   1+2+3+4+   1+2+3+4+   1+2+3+4+   1+2+3+4+
G|----------|----------|----------|----------|
D|----------|----------|----------|-4444-----|
A|----------|-22224444-|----------|-----4444-|
E|-44444444-|----------|-44444444-|----------|

   1+2+3+4+   1+2+3+4+   1+2+3+4+   1+2+3+4+
G|----------|----------|----------|----------|
D|----------|----------|----------|-4444-----|
A|----------|-22224444-|----------|-----4444-|
E|-44444444-|----------|-44444444-|----------|

CHORUS
# Now you know, yeah I've got...
   1+2+3+4+   1+2+3+4+   1+2+3+4+   1+2+3+4+
G|----------|----------|----------|----------|
D|----------|----------|----------|----------|
A|----------|-22224444-|----------|-22224444-|
E|-44442222-|----------|-44442222-|----------|

VERSE 3
# Deep in the jungle camoflaged by...
   1+2+3+4+   1+2+3+4+
G|----------|----------|
D|----------|-4--------|
A|----------|-----4-2--|
E|-4-----2--|----------|

BRIDGE
# You've got me where you want me...
   1+2+3+4+   1+2+3+4+   1+2+3+4+   1+2+3+4+
G|----------|----------|----------|----------|
D|----------|----------|----------|-4444-----|
A|----------|-22224444-|----------|-----4444-|
E|-44444444-|----------|-44444444-|----------|

   1+2+3+4+   1+2+3+4+   1+2+3+4+   1+2+3+4+
G|----------|----------|----------|----------|
D|----------|----------|----------|-4444-----|
A|----------|-22224444-|----------|-----4444-|
E|-44444444-|----------|-44444444-|----------|

CHORUS
# Now you know, yeah I've got...
   1+2+3+4+   1+2+3+4+   1+2+3+4+   1+2+3+4+
G|----------|----------|----------|----------|
D|----------|----------|----------|----------|
A|----------|-22224444-|----------|-22224444-|
E|-44442222-|----------|-44442222-|----------|

MIDDLE EIGHT
   1+2+3+4+   1+2+3+4+   1+2+3+4+   1+2+3+4+
G|----------|----------|----------|----------|
D|----------|----------|----------|----------|
A|----------|-22224444-|----------|-22224444-|
E|-44444444-|----------|-44444444-|----------|

SOLO
   1+2+3+4+   1+2+3+4+   1+2+3+4+   1+2+3+4+
G|----------|----------|----------|----------|
D|----------|----------|----------|----------|
A|----------|-22224444-|----------|-22224444-|
E|-44442222-|----------|-44442222-|----------|

FINAL CHORUS
# Now you know, yeah I've got...
   1+2+3+4+   1+2+3+4+   1+2+3+4+   1+2+3+4+
G|----------|----------|----------|----------|
D|----------|----------|----------|----------|
A|----------|-22224444-|----------|-22224444-|
E|-44442222-|----------|-44442222-|----------|

   1+2+3+4+   1+2+3+4+   1+2+3+4+   1+2+3+4+   1+2+3+4+
G|----------|----------|----------|----------|----------|
D|----------|----------|----------|----------|----------|
A|----------|-22224444-|----------|-22224444-|----------|
E|-44442222-|----------|-44442222-|----------|-4--------|
            
Hard to play? Try these video lessons and learn fast. | Correct




comments powered by Disqus
↑ Back to top | Tablatures and chords are parodies/interpretations of the original songs. You may use it for private study, scholarship, research or language learning purposes only