» » »

Ain't No Rest For The Wicked Tabs (ver.4)

Artists:  A B C D E F G H I J K L M N O P Q R S T U V W X Y Z # 

Ain't No Rest For The Wicked Tabs (ver.4)

Cage The Elephant
Rating:
0/5 (0 votes)

Hard to play? Try these video lessons and learn fast.
                Cage the Elephant - Aint No Rest For The Wicked

Standard Tuning

After watching various live performances and listening to the track I've worked out what 
think is pretty damn close to the actual tabliture.

Intro -

(The actual song uses a slide, but I've worked this out without a slide, so I don't know 
it sounds right with one)

e|-0-3-0-5-0--0-3-0-5-0-3/5555--0-3-0-5-0--12\--0-3-0--0-3-0-0-3-0-|
B|-0-3-0-5-0--0-3-0-5-0-3/5555--0-3-0-5-0--12\--0-3-0--0-3-0-0-3-0-|
G|-0-3-0-5-0--0-3-0-5-0-3/5555--0-3-0-5-0--12\--0-3-0--0-3-0-0-3-0-|
D|-0-3-0-5-0--0-3-0-5-0-3/5555--0-3-0-5-0--12\--0-3-0--0-3-0-0-3-0-|
A|-----------------------------------------------------------------|
E|-----------------------------------------------------------------|

Verse -

e|----xxxxxx---xxxxxx-----xxxxxx---xx---xx---|
B|----xxxxxx---xxxxxx-----xxxxxx---xx---xx---|
G|----xxxxxx---xxxxxx-----xxxxxx---xx---xx---|
D|-5-5xxxxxx8-8xxxxxx10-10xxxxxx8-8xx3-3xx5-5|x4
A|-5-5xxxxxx8-8xxxxxx10-10xxxxxx8-8xx3-3xx5-5|
E|-3-3xxxxxx6-6xxxxxx8--8-xxxxxx6-6xx1-1xx3-3|

But on the 4th time, end on -

e|----xxxxxx---xxxxxx-----xxxxxx-0-3-0-0-3-0|
B|----xxxxxx---xxxxxx-----xxxxxx-0-3-0-0-3-0|
G|----xxxxxx---xxxxxx-----xxxxxx-0-3-0-0-3-0|
D|-5-5xxxxxx8-8xxxxxx10-10xxxxxx-0-3-0-0-3-0|
A|-5-5xxxxxx8-8xxxxxx10-10xxxxxx------------|
E|-3-3xxxxxx6-6xxxxxx8--8-xxxxxx------------|

Chorus -

e|-3/12-3/5555|
B|-3/12-3/5555|
G|-3/12-3/5555|
D|-3/12-3/5555|X8
A|------------|
E|------------|

Then the verse repeats again

Then the Chorus repeats again, but then goes into a solo -

e|----------------------------------------------------------|
B|-11-11--------------11-11--------------11-11--------------|
G|----10-----------------10-----------------10--------------|
D|-------12--17-15-17-------12--17-15-17-------12--17-15-17-|
A|----------------------------------------------------------|
E|----------------------------------------------------------|

e|----------------------------------|
B|----------------------------------|
G|-12b-12b-12b-15b-15b-15b-17b17b17b|
D|----------------------------------|
A|----------------------------------|
E|----------------------------------|

Then the verse repeats again.

Then the Chorus repeats again and it ends there.

you've got any problems with it.
            
Hard to play? Try these video lessons and learn fast. | Correct




comments powered by Disqus
↑ Back to top | Tablatures and chords are parodies/interpretations of the original songs. You may use it for private study, scholarship, research or language learning purposes only