» » »

Cage The Elephant, 2024 Tabs (ver.1)

Artists:  A B C D E F G H I J K L M N O P Q R S T U V W X Y Z # 

2024 Tabs (ver.1)

Cage The Elephant Tabs
Rating:
0/5 (0 votes)
2024 lessons Tabs too difficult? Try these video lessons and learn fast
                


 
Cage the Elephant
Thank You Happy Birthday

Intro:
Guitar 1: 
e|----------------------------------| 
B|----------------------------------|
G|----------------------------------|
D|-2-4444444----2-444----44444444---|
A|-2-4444444-x2-2-444-x2-44444444---|
E|-2-4444444----2-444----44444444---|

Guitar 2:
e|-------------------------------------| 
B|-------------------------------------|
G|--------------------------55555555---|
D|-4-66666666----4-666----4-55555555---|x1
A|-4-66666666-x2-4-666-x2-4-33333333---|
E|-2-44444444----2-444----2------------|

Verse:
Guitar 1:           folded up  take you sweet
e|---9--------------9--------9-------------|
B|-10-10----------10-10----10-10-----------|
G|-----------------------------------------|
D|-----------------------------------------|
A|-------9119-------------------9119-------|
E|------------119--------------------119---|

Guitar 2:
e|--------------------------------| 
B|--------------------------------|
G|--------------------------------|
D|-4444444-6666666----66666666666-|x2
A|-4444444-6666666-x3-66666666666-|
E|-2222222-4444444----44444444444-|

Chorus:
Guitar 1:
e|---6----9-------------10-10---------------------| 
B|--7-7-10-10-------------9-----------------------|
G|----------x4-----------------------x3-----------|
D|--------------------------------------44444444--|
A|---------------------------9119-------44444444--|
E|-------------------------------119----22222222--|






Guitar 2:
e|-------------------------------------------------------------| 
B|-------------------------------------------------------------|
G|-------------------------------------------------------------|
D|-4-44444-6-66666--4444444----6666666-88888888----4444444-----|
A|-4-44444-6-66666--4444444-x2-6666666-88888888-x5-4444444-----|
E|-2-22222-4-44444--2222222----4444444-66666666----2222222-----|




Solo:
Guitar 1:
e|-----------------------------------------------------------------------------------| 
B|-----------------------------------------------------------------------------------|
G|-----------------------------------------------------------------------------------|
D|-7777777-9999999-12121212121212-111111111111-999999-11111111-12121212-11111111-----|
A|-7777777-9999999-12121212121212-111111111111-999999-11111111-12121212-11111111-----|
E|-7777777-9999999-12121212121212-111111111111-999999-11111111-12121212-11111111-----|

e|--------------| 
B|--15b---------|
G|--17b-x30-----|
D|--------------|
A|--------------|
E|--------------|
            
Submit corrections

comments powered by Disqus
↑ Back to top | Cage The Elephant Tabs for 2024. Lyrics for acoustic guitar and electric guitar. Tablatures and chords are parodies/interpretations of the original songs. You may use it for private study, scholarship, research or language learning purposes only