» » »

Volver A Comenzar Bass tabs (ver.1)

Artists:  A B C D E F G H I J K L M N O P Q R S T U V W X Y Z # 

Volver A Comenzar Bass tabs (ver.1)

Cafe Tacuba
Rating:
4/5 (3 votes)

Hard to play? Try these video lessons and learn fast.
                                      Cafe Tacvba
                 Volver a Comenzar




Intro 

00:07
G|----------------------------------------|
D|----------------------7-----7-----------|
A|----------------------------------------|
E|-7-75-575---99-7-55------5-----575------|

00:15
G|-----------------------------------------|
D|----------------------7-----7764---------|
A|----------------------------------7------|
E|-7-75-575---99-7-55------5---------------|

00:22
G|------------------------------------------|
D|------------------------------------------|
A|----------------7-------------------------|
E|-77-7575-99-979---555555-5454-------------|

00:29
G|-----------------------------------------|
D|-----------------------------------------|
A|----------------7------------------------|
E|-77-7575-99-979---5555---542420----------|

00:37
G|------------------------------------------|
D|------------------------------------------|
A|----------------7-------------------------|
E|-77-7575-99-979---555555-5454-------------|

00:44
G|-----------------------------------------|
D|-----------------------------------------|
A|----------------7------------------------|
E|-77-7575-99-979---5555---542420----------|

Fin intro

Después se repiten básicamente estas ultimas dos lineas
Haciendo pequeñas modificaciones en las ultimas notas de
la segunda linea cada vez que lo toca Quique.



Hay dos bajadas tipo funky muy interesantes que valen la
pena tocar:

02:05          Si volviera a comenzar...

G|-----------------------------------------------|
D|--------------------------9-----7-----6-----5--|
A|-----------------------------------------------|
E|-22-2020-22-2020-7777--7-----5-----4-----3-----|


G|----------------------------------------|
D|----------------------------------------|
A|----------------------------------------|
E|-22-2020-22-2020----77-757-5------------|


03:05           Si volviera a comenzar...

G|-----------------------------------------------|
D|--------------------------9-----7-----6-----5--|
A|-----------------------------------------------|
E|-22-2020-22-2020-7777--7-----5-----4-----3-----|


G|--------------------------------------------------|
D|--------------------------9-----7-----9-----11----|
A|--------------------------------------------------|
E|-22-2020-22-2020-7777--7-----5-----7-----9--------|


G|-----------------------------------------------|
D|--------------------------9-----7-----6-----5--|
A|-----------------------------------------------|
E|-22-2020-22-2020-7777--7-----5-----4-----3-----|

G|------------------------------------------|
D|------------------------------------------|
A|----------------------------4-5-----------|
E|-22-2020-22-2020-7777--5-7----------------|
            
Hard to play? Try these video lessons and learn fast. | Correct




comments powered by Disqus
↑ Back to top | Tablatures and chords are parodies/interpretations of the original songs. You may use it for private study, scholarship, research or language learning purposes only