» » »

Cafe Tacuba, Ixtepec Tabs (ver.1)

Artists:  A B C D E F G H I J K L M N O P Q R S T U V W X Y Z # 

Ixtepec Tabs (ver.1)

Cafe Tacuba Tabs
Rating:
5/5 (1 vote)
Ixtepec lessons Tabs too difficult? Try these video lessons and learn fast
                Band: Cafe Tacuba




Intro/Chorus

e---0--0---4-4-4-4-------0--0---4-4-4-4-------------------------------|
B---0--0---4-4-4-4-------0--0---4-4-4-4-------------------------------|
G---1--1---4-4-4-4-------1--1---4-4-4-4-------------------------------|
D---2--2---6-6-6-6-------2--2---6-6-6-6-------------------------------|
A---2--2---6-6-6-6-------2--2---6-6-6-6-------------------------------|
E---0--0---4-4-4-4-------0--0---4-4-4-4-------------------------------|

e---0--0---4-4-4-4---5------------------------------------------------|
B---0--0---4-4-4-4---5------------------------------------------------|
G---1--1---4-4-4-4---6------------------------------------------------|
D---2--2---6-6-6-6---7------------------------------------------------|
A---2--2---6-6-6-6---7------------------------------------------------|
E---0--0---4-4-4-4---5------------------------------------------------|

Verse

e--5--5--8--5--5----8--8--7-7-7---------------------------------------|
B--5--5--5--5--5----8--8--7-7-7---------------------------------------|
G--6--6--6--6--6----9--9--8-8-8---------------------------------------|
D--7--7--5--5--5---10-10--9-9-9---------------------------------------|
A--7--7--7--7--7---10-10--9-9-9---------------------------------------|
E--5--5--5--5--5----8--8--7-7-7---------------------------------------|

Break

e---8-7-8---------------8-7-8-----------------------------------------|
B---------8--6-5-6-3-----------8-6-5-3-1------------------------------|
G---------------------------------------------------------------------|
D---------------------------------------------------------------------|
A---------------------------------------------------------------------|
E---------------------------------------------------------------------|

any comments/corrections e-mail,please rate
            
Submit corrections

comments powered by Disqus
↑ Back to top | Cafe Tacuba Tabs for Ixtepec. Lyrics for acoustic guitar and electric guitar. Tablatures and chords are parodies/interpretations of the original songs. You may use it for private study, scholarship, research or language learning purposes only