>
 >
Eres 1

Eres 1 Guitar Tabs

Cafe Tacuba - Eres 1 chords, tabs, tablatures, lyrics

Guitar lessons | Add/correct | Request | Top 50 tabs Artists:  A B C D E F G H I J K L M N O P Q R S T U V W X Y Z 0-9

Eres 1 Guitar Tabs – Cafe Tacuba

CD, Sheet music, Poster

Do you like Eres 1? Share with your friends now
Bass TabsChordsChords v2Chords v3TabsTabs v2Tabs v3Ukulele

Cafe Tacuba
Eres

I think this is a great song and I want to dedicate to a friend,  but let's go to the
action: This song is played with 2 guitars. We start with the guitar 1 this is the
electric guitar this guitar only play the chords indicated. And the guitar 2 is the
acoustic guitar this guitar only plays the arpeggios that are down the letter of the
song. I´m 100% sure that the chords and the arpeggios they are the correct ones

****************************************************************************

Guitar 1: Am, C, E, E7 x4


Guitar 2: the arpeggios enter after the circle of the guitar 1 are played 2 times

       Am      C      E     E7
e|---------0------------------0---------|
B|-----1-----1------------------0-------|
G|---2---2-----0----------1-------1-----|
D|-2-------------2------2---0-------0---|
A|-----------------3--2-----------------|
E|--------------------------------------|

       Am      C      E     E7
e|---------0------------------0---------|
B|-----1-----1------------------0-------|
G|---2---2-----0----------1-------1-----|
D|-2-------------2------2---0-------0---|
A|-----------------3--2-----------------|
E|--------------------------------------|



Eres,
       Am       C     
e|---------0----------|
B|-----1-----1--------|
G|---2---2-----0------|
D|-2-------------2----|
A|-----------------3--|
E|--------------------|

Lo que mas quiero en este mundo eso eres,
    E     E7                                  
e|---------0--------------------------------0----------|
B|-----1-----1--------------------------1-----1--------|
G|---2---2-----0----------------------2---2-----0------|
D|-2-------------2------------------2-------------2----|
A|-----------------3--------------------------------3--|
E|-----------------------------------------------------|
 
mi pensamiento mas profundo también eres,
    E     E7            Dm
e|---------0---------------1-----1/3--1-|
B|-----1-----1-----------3---3----------|
G|---2---2-----0-------2-------2--------|
D|-2-------------2----------------------|
A|-----------------3--------------------|
E|--------------------------------------|

tan solo dime lo que hago 
    E     E7
e|---------0-------------|
B|-----1-----1-----------|
G|---2---2-----0---------|
D|-2-------------2-------|
A|-----------------3-----|
E|-----------------------|

aquí me tienes.
                 Am      C      E     E7
         e|---------0------------------0---------|
         B|-----1-----1------------------0-------|
         G|---2---2-----0----------1-------1-----|
         D|-2-------------2------2---0-------0---|
         A|-----------------3--2-----------------|
         E|--------------------------------------|


Am    C
Eres,
       Am       C     
e|---------0----------|
B|-----1-----1--------|
G|---2---2-----0------|
D|-2-------------2----|
A|-----------------3--|
E|--------------------|

 E        E7                      Am   C
cuando despierto lo primero eso eres 
    E     E7                                  
e|---------0--------------------------------0----------|
B|-----1-----1--------------------------1-----1--------|
G|---2---2-----0----------------------2---2-----0------|
D|-2-------------2------------------2-------------2----|
A|-----------------3--------------------------------3--|
E|-----------------------------------------------------|

 E           E7                       Dm
lo que a mi vida le hace falta si no vienes
E     E7            Dm
e|---------0---------------1-----1/3--1-|
B|-----1-----1-----------3---3----------|
G|---2---2-----0-------2-------2--------|
D|-2-------------2----------------------|
A|-----------------3--------------------|
E|--------------------------------------|

 E           E7
la mujer preciosa que en mi mente 
    E     E7
e|---------0-------------|
B|-----1-----1-----------|
G|---2---2-----0---------|
D|-2-------------2-------|
A|-----------------3-----|
E|-----------------------|

        Am   C  E  E7
habita hoy
                 Am      C      E     E7
         e|---------0------------------0---------|
         B|-----1-----1------------------0-------|
         G|---2---2-----0----------1-------1-----|
         D|-2-------------2------2---0-------0---|
         A|-----------------3--2-----------------|
         E|--------------------------------------|

Dm
Que mas puedo decirte
E7                            E5, A5, C#5 *E7
tal ves puedo mentirte sin razón
Dm
pero lo que hoy siento
E7
es que sin ti estoy muerto
      *E7,C#5, A5, E5
pues eres

lo que mas quiero en este mundo eso eres 

Guitar 2:
       Am      C      E     E7
e|---------0------------------0---------|
B|-----1-----1------------------0-------|
G|---2---2-----0----------1-------1-----|
D|-2-------------2------2---0-------0---|
A|-----------------3--2-----------------|
E|--------------------------------------|

       Am      C      E     E7
e|---------0------------------0---------|
B|-----1-----1------------------0-------|
G|---2---2-----0----------1-------1-----|
D|-2-------------2------2---0-------0---|
A|-----------------3--2-----------------|
E|--------------------------------------|

Guitar 1: Am, C, E, E7 x3

Guitar 2: Arpeggio x3

Am
Eres,
Am
el tiempo que comparto eso eres,
Am
lo que la gente promete cuando se quiere,
Am
mi salvación mi esperanza y mi fe.

Am  C
Soy,
       Am       C     
e|---------0----------|
B|-----1-----1--------|
G|---2---2-----0------|
D|-2-------------2----|
A|-----------------3--|
E|--------------------|

E         E7                         Am  C
el que quererte quiere como a nadie soy,
    E     E7                                  
e|---------0--------------------------------0----------|
B|-----1-----1--------------------------1-----1--------|
G|---2---2-----0----------------------2---2-----0------|
D|-2-------------2------------------2-------------2----|
A|-----------------3--------------------------------3--|
E|-----------------------------------------------------|

E            E7                 Dm
el que te llevaría el sustento día día dia
E     E7            Dm
e|---------0---------------1-----1/3--1-|
B|-----1-----1-----------3---3----------|
G|---2---2-----0-------2-------2--------|
D|-2-------------2----------------------|
A|-----------------3--------------------|
E|--------------------------------------|

E            E7
el que por ti daría la vida 
         E     E7
e|---------0-------------|
B|-----1-----1-----------|
G|---2---2-----0---------|
D|-2-------------2-------|
A|-----------------3-----|
E|-----------------------|

      Am C E E7
ese soy
                 Am      C      E     E7
         e|---------0------------------0---------|
         B|-----1-----1------------------0-------|
         G|---2---2-----0----------1-------1-----|
         D|-2-------------2------2---0-------0---|
         A|-----------------3--2-----------------|
         E|--------------------------------------|

Dm
Aquí estoy a tu lado
E7                                E5, A5, C#5, *E7
y espero aquí sentado hasta el final
Dm
no te has imaginado 
E7                               *E7, E5, A5, C#5
lo que por ti he esperado pues eres
                                 Am  C
lo que yo amo en este mundo eso eres
                             Am       C     
                          e|---------0----------|
                          B|-----1-----1--------|
                          G|---2---2-----0------|
                          D|-2-------------2----|
                          A|-----------------3--|
                          E|--------------------|

F       E               E7         Am  C
cada minuto en lo que pienso eso eres
    E     E7                                  
e|---------0--------------------------------0----------|
B|-----1-----1--------------------------1-----1--------|
G|---2---2-----0----------------------2---2-----0------|
D|-2-------------2------------------2-------------2----|
A|-----------------3--------------------------------3--|
E|-----------------------------------------------------|

F       E                 E7         
lo que mas cuido en este mundo
               E     E7                                  
           e|---------0-----------|
           B|-----1-----1---------|
           G|---2---2-----0-------|
           D|-2-------------2-----|
           A|-----------------3---|
           E|---------------------|

      Am C E E7
eso eres
             Am      C      E     E7
     e|---------0------------------0---------|
     B|-----1-----1------------------0-------|
     G|---2---2-----0----------1-------1-----|
     D|-2-------------2------2---0-------0---|
     A|-----------------3--2-----------------|
     E|--------------------------------------|


Guitar 1: Am, C, E, E7 x5 (ends in Am)
Guitar 2: Arpeggio x5

Chords

   Am  C   E   E7 Dm  C#5  A5  E5 *E7
e|-0-|-0-|-0-|-0-|-1-|-x-|-x-|-x-|-x-|
B|-1-|-1-|-0-|-0-|-3-|-x-|-x-|-x-|-x-|
G|-2-|-0-|-1-|-1-|-2-|-5-|-7-|-9-|-1-|
D|-2-|-2-|-2-|-0-|-0-|-5-|-7-|-9-|-0-|
A|-x-|-3-|-2-|-2-|-x-|-3-|-5-|-7-|-2-|
E|-x-|-3-|-0-|-x-|-x-|-x-|-x-|-x-|-x-|

that's everything i hope you enjoyed it.

RODRIGO RULES





Comments


Popular Cafe Tacuba tabs & chords
Eres Bass Tabs
Quiero Ver Bass Tabs
Avientame Chords
La Ingrata Chords
Tropico De Cancer Chords
Avientame Tabs
Bar Tacuba Tabs
Eres Tabs
Mediodia Tabs
Volcan Ukulele


Song lyrics



↑ Back to top | Tablatures and chords are parodies/interpretations of the original songs. You may use it for private study, scholarship, research or language learning purposes only
© 2014 AZChords.com Contact us | Privacy policy | DMCA | Add/correct tabs | Request tabs | Top 50 tabs