>
 >
Sozinho

Sozinho Guitar Tabs

Caetano Veloso - Sozinho chords, tabs, tablatures, lyrics

Guitar lessons | Add/correct | Request | Top 50 tabs Artists:  A B C D E F G H I J K L M N O P Q R S T U V W X Y Z 0-9

Sozinho Guitar Tabs – Caetano Veloso

CD, Sheet music, Poster

Do you like Sozinho? Share with your friends now
ChordsTabsUkulele
----------------------------------------------------------------------------
                             SOZINHO  Caetano Veloso
----------------------------------------------------------------------------


Tuning:EADGBe

veloso plays, however i think this is technically a very personal song, 
so, if you want to, feel free to adapt your own finger picking style to it.

Intro 
e|---0-0-----0----------2-2----2-------0----0----0----0--|
B|---1-1------1---------3-3-----3------3----3----3----3--|
G|---2-2-------2--2-----4-4---4--4-----2----2----2----2--|
D|---3-3---------3--------4--4----4----------------------|
A|--------------3-----2---------------0----0----0----0---|
E|-1----1-1---------0------------------------------------|
  (t)  (t)(t)


e|--------------5--------2------------------------0----5--5--5------0-----|
B|-----5--------5----2-3---2-3------------0-0-----0----5--5--5----2-2-----|
G|-----4--------4----4-4---4-4---4-2--0---0-0---0-0----4--4--4----0-0-----|
D|--(0)(0)--(0)---------4-------4-4--2-2-----0-----0-------------2-------|
A|-5--------4------2-----------2------2---------------0--------0-0---0----|
E|------------------------------------------------------------------------|
As vezes no silencio da noite              eu fico imaginando em nos dois 


e|--------------5-----------------------------0----5--5--5----------------|
B|-5---5----5---5----2-3--------------0-0-----0----5--5--5----2-----------|
G|-4---4----4---4----4-4---4-2-4--0---0-0---0-0----4--4--4----0-----------|
D|--(0)(0)--(0)-----------4-4-4--2-2-----0-----0-------------2-----------|
A|-5--------4------2--------------2---------------0--------0-0---0-1-2----|
E|------------------------------------------------------------------------|
Eu fico ali sonhando acordado juntando o antes o agora e o depois 


e|----2--------2-------2-0------2-0---------|
B|----3--------3-------3-3-3----3-3-3--3----|
G|----4--------4------------4--------4------|
D|-------4---4----4-----------4----------4--|
A|-(2)-----0--------------------------------|
E|------------------3-----------------------|
                   (t)
Porque voce me deixa tao solto?
                 
e|----2--------2------2---2---2---2---------|
B|----3--------3------3---3---3---3---------|
G|----4--------4------4---4---4---4---------|
D|-------4---4----4-------------------------|
A|-(2)-----0--------------------------------|
E|------------------0---0---0---0---0-------|
Porque voce nao cola em mim?

e|----2--------2-------2-0------2-0---------|
B|----3--------3-------3-3-3----3-3-3--3----|
G|----4--------4------------4--------4------|
D|-------4---4----4-----------4----------4--|
A|-(2)-----0--------------------------------|
E|------------------3-----------------------|
                   (t)
Tou-me sentindo muito sozinho

e|-5------------5--------2------------------------0----5--5--5------0-----|
B|-5---5--------5----2-3---2-3------------0-0-----0----5--5--5----2-2-----|
G|-4---4--------4----4-4---4-4---4-2--0---0-0---0-0----4--4--4----0-0-----|
D|--(0)(0)--(0)---------4-------4-4--2-2-----0-----0-------------2--2----|
A|-5--------4------2-----------2------2---------------0--------0-0--------|
E|------------------------------------------------------------------------|
Nao sou nem quero ser o seu dono          que um carinho as vezes cai bem

e|--------------5-----------------------------0----5--5--5----------------|
B|-5---5----5---5----2-3--------------0-0-----0----5--5--5----2-----------|
G|-4---4----4---4----4-4---4-2-4--0---0-0---0-0----4--4--4----0-----------|
D|--(0)(0)--(0)-----------4-4-4--2-2-----0-----0-------------2-----------|
A|-5--------4------2--------------2---------------0--------0-0---0-1-2----|
E|------------------------------------------------------------------------|
Eu tenho meus desejos e planos secretos so abro pra voce mais ninguem    
     
e|----2--------2-------2-0------2-0----------|
B|----3--------3-------3-3-3----3-3-3--3-----|
G|----4--------4------------4--------4-------|
D|-------4---4----4-----------4----------4---|
A|-(2)-----0---------------------------------|
E|------------------3------------------------|
                   (t)
Porque voce me esquece e some?
                        
e|----2--------2------7---7-7----|
B|----3--------3------7---7-7----|
G|----4--------4------7---7-7----|
D|-------4---4----4---7----------|
A|-(2)-----0----------7----------|
E|------------------0---0--------|
E se eu me interessar em alguem?

e|----2--------2-------2-0------2-0---------|
B|----3--------3-------3-3-3----3-3-3--3----|
G|----4--------4------------4--------4------|
D|-------4---4----4-----------4----------4--|
A|-(2)-----0--------------------------------|
E|------------------3-----------------------|
                   (t)
E se ela derrepente me ganha?


e|-----5--------5--2-2-0----0--0-0----0-----0-0-3-0-----2-2-5-5---2-------|
B|-5---5----5---5--3-3--3---3--0-0---0-0----1-1-1-1-1---3-3-5-5-3-3-------|
G|-4---4----4---4--4-4---4--4--0-0--0---0---0--0-0-0-0--2-2-4-4-4-4-4-2---|
D|-----(0)--------4-4---------2---0--------2-----------0---x---4-4----4-2|
A|-5--------4-(4)-------------------------3-----------------4---2---------|
E|-----------------3---------3--------------------------------------------|
                   (t)       (t)
Quando agente gosta e claro que agente cuida fala que me ama so que e da boca
para fora, ou voce me engana ou nao me esta madura (ye ye ye ye ye)

e|-----3--0----5-5--5-----0------2--|
B|--3--3--2----5-5--5-----2-2----3--|
G|--0--0--0----4-4--4-----0-0----2--|  Repeat the last part 
D|--0-----2----------------------0--|  as many times as necessary ;)
A|-----------5--------0-0-----0-----|
E|----------------------------------|
         onde esta voce agora?


| /  slide up
| \  slide down
| h  hammer-on
| p  pull-off
| ~  vibrato
| +  harmonic
| x  Mute note
============================================================================





Comments


Popular Caetano Veloso tabs & chords
Billie Jean Chords
Elegia Chords
London London Chords
London London 1 Chords
O Leaozinho Chords
Sampa Chords
Tigresa Chords
Trem Das Cores Chords
Cidade Maravilhosa Ukulele
Sampa Ukulele


Song lyrics



↑ Back to top | Tablatures and chords are parodies/interpretations of the original songs. You may use it for private study, scholarship, research or language learning purposes only
© 2014 AZChords.com Contact us | Privacy policy | DMCA | Add/correct tabs | Request tabs | Top 50 tabs