>
 >
Sonhos

Sonhos Guitar Tabs

Caetano Veloso - Sonhos chords, tabs, tablatures, lyrics

Guitar lessons | Add/correct | Request | Top 50 tabs Artists:  A B C D E F G H I J K L M N O P Q R S T U V W X Y Z 0-9

Sonhos Guitar Tabs – Caetano Veloso

CD, Sheet music, Poster

Do you like Sonhos? Share with your friends now
Tabs
                                    Sonhos                                      


                                                                  Caetano Veloso
Untitled



     ^                                                 ^        ^          
                  |--3--|                  |--3--|                         
     H.           E  E  E     H.           E  E  E     H        Q    Q     
E||------------------3-----|------------------3-----|---------------------|
B||--3------------4--4--4--|--3------------4--4--4--|--4--------4----3----|
G||--3------------3--3--3--|--3------------3--5--3--|--5--------4----4----|
D||--5------------5-----5--|--5------------5-----5--|--6--------3----3----|
A||--3---------------------|--3---------------------|---------------------|
E||------------------------|------------------------|--4--------3---------|


  Q    Q    Q    E  E     S E.  E  E  S E.  E  E     S E.  E  E  S E.  E  E   
-----------------------|--------------------3-----|--------3-----------------|
-------4---------4-----|----6---6-------3---3-----|----5---5-------5---------|
-------3---------3-----|----5---5-------4---4-----|----3---3-------6---5--3--|
-------5---------5-----|----6---6-------3---------|----5-----------5---5--5--|
--3---------3-------3--|--5--------5--------5-----|--3--------3--3--------3--|
-----------------------|--------------3--------3--|--------------------3-----|


                                >                      
        |--3--|                                        
  S E.  E  E  E  Q    Q       S E.  E  E  S E.  E  E   
--------1------------------|--------------------------|
----1---1--1----------1----|----6---6-------3------3--|
----1---1--1--1-------1----|----5---5-------4------4--|
----3------1--1-------1----|----6---6-------5------5--|
---------------------------|--5--------5--------5-----|
--1--------------1---------|--------------3-----------|


  S E.  E  E  S E.  E  E     S E.  E.  S E.  S E  E   
--------3-----------------|--------------------------|
----4---4-------4---4-----|----4---4-----4---4-L-----|
----3---3-------3---3-----|----5---5-----5---5-L-----|
----5-----------5---5-----|----3---3-----3---3-L-----|
--3--------3--------------|--------------------------|
--------------6--------6--|--4---------4----------4--|


        |--3--|                                        
  S E.  E  E  E  Q    E  E     Q    E  E  S E.  E  E   
-----------3----------------|-------------------3-----|
----3---3--3--3-------3--3--|-------4-------4---4-----|
----4---4--4--4-------4--4--|-------3-------3---3-----|
----3---3--------6----5--3--|--1-------1----5---------|
----------------------------|--3----------3--------3--|
--3--------------3----------|-------------------------|


  S E.  E  E  S E.  E  E     S E  S S S S S S E  S S S S  S   
--------------------------|----------------------------------|
----6---6-------3---3-----|----5--5---5---5------------------|
----5---5-------4---4-----|----3--3---3---3---6--6---6---(6)-|
----6---6-------3---3-----|----5--5---5---5---5--5---5---(5)-|
--5--------5--------------|--3--------------3----------3-----|
--------------3--------3--|---------3---3----------3---------|


  S E  S S S S S S E  S S S S  S     S E  S S S S S S E  S S S S S  
-------------------1--1-----------|--------------------------------|
----1--1---1---1---1--1---1---(1)-|----6--6---6---6---6--6---3---3-|
----1--1---1---1---1--1---1---(1)-|----5--5---5---5---5--5---4---4-|
----3--3---3-3---1----------------|----6--6---6---6---6--6---5---5-|
---------3--------------3---------|--5------5---5------------------|
--1-------------------------1-----|-----------------4------3---3---|


  S E  S S S  S  S S E  S S S S S    S E  S S S S S S E  S S S S S  
----------------------------------|--------------------------------|
----4--4---4-----4---4--4---4---4-|----4--4---4---4---4--4---4---4-|
----3--3---3-----3---3--3---3---3-|----5--5---5---5---5--5---5---5-|
----5--5---5-----5---5--5---5---5-|----3--3---3---3---3--3---3---3-|
--3----------------3--------------|--------------------------------|
---------3---(3)----------6---6---|--4------4---4---4------4---4---|


  S E  S S S S S S E  S S S S S      S E  S  S  S S S  S  E  S S S S S  
--------------------------------||-----3--3-----3---3-----3--3---3---3-|
----3--3---3---3---3--3---3---3-||-----4--4-----4---4-----4--4---4---4-|
----4--4---4---4---4--4---4---4-||*----3--3-----3---3-----3--3---3---3-|
----3--3---3---3---3--3---3-6---||*--5------(5)----------------5-------|
---------5---5----------5-------||--------------------(3)----------3---|
--3--------------3--------------||----------------3--------------------|


  S E  S S S S S S E  S S S S S    S E  S S S S S S E  S S S S S  
--------------------------------|--------------------------------|
----6--6---6---6---3--3---3---3-|----5--5---5---5----------------|
----5--5---5---5---4--4---4---4-|----3--3---3---3---6--6---6---6-|
----6--6---6---6---3--3---3---3-|----5--5---5---5---5--5---5---5-|
--5------5---5----------5-------|--3----------3---3----------3---|
-----------------3----------3---|---------3--------------3-------|


  S E  S S S S S S E  S S S S S    S E  S S S S S S E  S S S S S  
--------------------------------|--------------------------------|
----1--1---1---1---1--1---1---1-|----6--6---6---6---4--4---3---3-|
----1--1---1---1---1--1---1---1-|----5--5---5---5---5--5---4---4-|
----3--3---3-3-3---3--3---3-1-3-|----6--6---6---6---6--6---5---5-|
---------3--------------3-------|--5------5---5----------5-------|
--1--------------1--------------|-----------------4----------3---|


                                                    >             
  S E  S S S S S S E  S S S S S    S E  S S S S S S E  S S S S S  
--------------------------------|--------------------------------|
----4--4---4---4---4--4---4---4-|----6--6---6---6---4--4---3---3-|
----3--3---3---3---3--3---3---3-|----5--5---5---5---4--4---4---4-|
----5--5---5---5---5--5---5---5-|----6--6---6---6---4--4---3---3-|
--3--------------3----------3---|--5------5---5------------------|
---------3---3----------3-------|-----------------4------3---3---|


                   >      >                                         
  S E  S S S S S S E  S S S S S      S E  S S S S S S E  S S S S S  
---------------------------------||--------------------------------|
----4--4---4---4---4--4---4---4--||----4--4---4---4---4--4---4---4-|
----3--3---3---3---3--3---4---4-*||----5--5---5---5---5--5---5---5-|
----5--5---5---5---5--5---3---3-*||----6--6---6---6---6--6---6---6-|
--3--------------3---------------||--------------------------------|
---------3---3----------3---3----||--4------4---4---4------4---4---|


                                                    >             
  S E  S S S S S S E  S S S S S    S E  S S S S S S E   S  S E.   
--------------------------------|--------------------------------|
----3--3---3---3---3--3---3---3-|----6--6---6---6---6--(4)---3---|
----4--4---4---4---4--4---4---4-|----5--5---5---5---5--------4---|
----3--3---3-5-3---3--3---3-3---|----6--6---6---6---3--------3---|
---------5--------------5-------|--5------5---5------------------|
--3--------------3--------------|-----------------4--------3-----|


                    ^          
  |--3--|  |--3--|             
  E  E  E  E  E  E  H          
-----------------3--6--------||
-----------4--------4--------||
--------3-----3-----3--------||
-----5-----------------------||
--3--------------------------||
-----------------------------||




Duration Legend
---------------
W - whole
H - half
Q - quarter
E - 8th
S - 16th
T - 32nd
X - 64th
. - note dotted
|-n-|  - n-tuplets


Tablature Legend
----------------
L - tied note
x - dead note
g - grace note
(n) - ghost note
> - accentuded note
NH - natural harmonic
AH - artificial harmonic
TH - tapped harmonic
SH - semi harmonic
PH - pitch harmonic
h - hammer on
p - pull off
b - bend
br - bendRelease
pb - preBend
pbr - preBendRelease
brb - bendReleaseBend
\n/ - tremolo bar dip
\n - tremolo bar dive
-/n - tremolo bar Release up
/n\ - tremolo bar inverted dip
/n - tremolo bar return
-\n - tremolo bar Release down
S - shift slide
s - legato slide
/ -  slide into from below or out of upwards
\ -  slide into from above or out of downwards
~ - vibrato
W - wide vibrato
tr - trill
TP - tremolo picking
T - tapping
S - slap
P - pop
< - fade in
^ - brush up
v - brush down





Comments


Popular Caetano Veloso tabs & chords
Elegia Chords
Mimar Voce Chords
Nine Out Of Ten Chords
Superbacana Chords
Tigresa Chords
Valsa De Uma Cidade Chords
Voce E Linda Chords
Sozinho Tabs
Alegria Alegria Ukulele
Tropicalia Ukulele


Song lyrics



↑ Back to top | Tablatures and chords are parodies/interpretations of the original songs. You may use it for private study, scholarship, research or language learning purposes only
© 2014 AZChords.com Contact us | Privacy policy | DMCA | Add/correct tabs | Request tabs | Top 50 tabs