» » »

Jerk It Out Tabs (ver.1)

Artists:  A B C D E F G H I J K L M N O P Q R S T U V W X Y Z # 

Jerk It Out Tabs (ver.1)

Caesars Palace
Rating:
2/5 (7 votes)

Tabs too difficult? Try these video lessons and learn fast.
                
Tuning: Standard 

Verse: (play this throughout the verse - use upstrokes)

E|--44--777--22--000-|
B|--44--444--22--000-|
G|--44--444--22--000-|
D|-------------------|
A|-------------------|
E|-------------------|

Chorus:

E|-----------4-4-4-4--2-2-2-2--4-4-4-4-----------4-4-4-4--2-2-2-2-2-|
B|--9-9-9-9--4-4-4-4--2-2-2-2--4-4-4-4--9-9-9-9--4-4-4-4--2-2-2-2-2-|
G|--9-9-9-9--4-4-4-4--3-3-3-3--4-4-4-4--9-9-9-9--4-4-4-4--3-3-3-3-3-|
D|--9-9-9-9--6-6-6-6--4-4-4-4--6-6-6-6--9-9-9-9--6-6-6-6--4-4-4-4-4-|
A|--7-7-7-7--6-6-6-6--4-4-4-4--6-6-6-6--7-7-7-7--6-6-6-6--4-4-4-4-4-|
E|-----------4-4-4-4--2-2-2-2--4-4-4-4-----------4-4-4-4--2-2-2-2-2-|

Solo:

E|--------------------------|
B|-12-11-7-2-4--12-14-16-19-|
G|--------------------------|
D|--------------------------|
A|--------------------------|
E|--------------------------|

End Note:

E|-4~~-|
B|-4~~-|
G|-4~~-|
D|-----|
A|-----|
E|-----|
            
Tabs too difficult? Try these video lessons and learn fast.


comments powered by Disqus
↑ Back to top | Tablatures and chords are parodies/interpretations of the original songs. You may use it for private study, scholarship, research or language learning purposes only