» » »

Fun And Games Bass tabs (ver.1)

Artists:  A B C D E F G H I J K L M N O P Q R S T U V W X Y Z # 

Fun And Games Bass tabs (ver.1)

Caesars Palace
Rating:
0/5 (0 votes)

Hard to play? Try these video lessons and learn fast.
                Any questions about the tab, please let me know.

Should be played fingered. You will easily get the riff order while listening.
Because some quarternotes are short the rythm should sound: 

H      S  Q   Q
daaaam da da  daam 

H = Halfnote
Q = Quarternote
Q. = Quarternote + Eightnote
S = Sixteenthnote 

Verse
   H  S Q  Q H  S Q  Q H  S Q  Q H  S Q  Q.S
G|-------------------------------------------------
D|-------------------------------------------------
A|-3--3-3--3-1--1-1--1-----------3--3-3--3-3-------
E|---------------------1--1-1--1-------------------

Chorus
   Q  Q  Q  Q  H  S Q  Q
G|-------------------------------------------
D|-------------------------------------------
A|-1--1--------3--3-3--3---------------------
E|-------1--1--------------------------------
            
Hard to play? Try these video lessons and learn fast. | Correct




comments powered by Disqus
↑ Back to top | Tablatures and chords are parodies/interpretations of the original songs. You may use it for private study, scholarship, research or language learning purposes only