» » »

Spill Your Guts Tabs (ver.1)

Artists:  A B C D E F G H I J K L M N O P Q R S T U V W X Y Z # 

Spill Your Guts Tabs (ver.1)

Caesars
Rating:
0/5 (0 votes)

Hard to play? Try these video lessons and learn fast.
                Caesars
Cherry Kicks

Intro

Gtr 1
e|------|-----|------|------|------|
B|------|-----|------|------|------|
G|------|-----|------|------|------|
D|--10--|--8--|--10--|--13--|--15--|
A|--10--|--8--|--10--|--13--|--15--|
E|---8--|--6--|---8--|--11--|--13--|
Play the first four a bunch of times and the last one play just three times.
(Listen to the song to get it)

Gtr 2
e|------|
B|--11--|
G|--10--|
D|---8--|
A|------|
E|------|
Just play that until the end of the intro.

Part on the keyboard
e|--8--8-8-8-6--6-6-6--|
B|---------------------|
G|---------------------| x2
D|---------------------|
A|---------------------|
E|---------------------|

Verse
e|------|------|------|------|------|------|-----|------|------|------|
B|------|------|------|------|------|------|-----|------|------|------|
G|------|------|------|------|------|------|-----|------|------|------|
D|--8---|--10--|--13--|--10--|--13--|--10--|--8--|--10--|--13--|--15--|
A|--8---|--10--|--13--|--10--|--13--|--10--|--8--|--10--|--13--|--15--|
E|--6---|---8--|--11--|---8--|--11--|---8--|--6--|---8--|--11--|--13--|

No keyboard or gtr 2 in the verse.

Chorus

Gtr 1
e|------|------|------|------|------|
B|------|------|------|------|------|
G|------|------|------|------|------|
D|--8---|--10--|--13--|--10--|--13--|
A|--8---|--10--|--13--|--10--|--13--|
E|--6---|---8--|--11--|---8--|--11--|

Gtr 2
e|------|
B|--11--|
G|--10--|
D|---8--| Many times
A|------|
E|------|

End on
e|-----|
B|-----|
G|-----|
D|--8--|
A|--8--|
E|--6--|

That's it, just figure out where everything goes by listening to the song.
            
Hard to play? Try these video lessons and learn fast. | Correct




comments powered by Disqus
↑ Back to top | Tablatures and chords are parodies/interpretations of the original songs. You may use it for private study, scholarship, research or language learning purposes only