» » »

Jerk It Out Tabs (ver.4)

Artists:  A B C D E F G H I J K L M N O P Q R S T U V W X Y Z # 

Jerk It Out Tabs (ver.4)

Caesars
Rating:
3/5 (5 votes)

Hard to play? Try these video lessons and learn fast.
                The Caesars

Jerk It Out



Main Riff:

Rythm|  1   +   2   +   3   +   4   +   1   +   2   +   3   +   4   +  |
    e|----------7-------7-------7-----------6-------4-4-4-------4------|
    B|--9-----------9-------9-------9---7-------7-----------5----------|
    G|-----------------------------------------------------------------|
    D|-----------------------------------------------------------------|
    A|-----------------------------------------------------------------|
    E|-----------------------------------------------------------------|


Solo:

Rythm: 1 2 3 4 1 2 3 4 | 1 2 3 4 1 2 3 4 |
    e|-7-------6-------|-----------------|
    B|-------------7---|-----------------|
    G|-----------------|-6-----6h8-------|
    D|-----------------|-----------------|
    A|-----------------|-----------------|
    E|-----------------|-----------------|


Rythm: 1 2 3 4 1 2 3 4 | 1 2 3 4 1 2 3 4 |
    e|-7-------9---11--|-14--------------|
    B|-----------------|-----------------|
    G|-----------------|-----------------|
    D|-----------------|-----------------|
    A|-----------------|-----------------|
    E|-----------------|-----------------|
            
Hard to play? Try these video lessons and learn fast. | Correct




comments powered by Disqus
↑ Back to top | Tablatures and chords are parodies/interpretations of the original songs. You may use it for private study, scholarship, research or language learning purposes only