» » »

Caesars, Jerk It Out Tabs (ver.3)

Artists:  A B C D E F G H I J K L M N O P Q R S T U V W X Y Z # 

Jerk It Out Tabs (ver.3)

Caesars Tabs
 Rating:
3.6/5 (7 votes)
Jerk It Out lessons Tabs too difficult? Try these video lessons and learn fast
1
                here is my tabbed version of jerk i out, hope it helps you to play it too. also my first 
ive submitted so please rate  - Dann

tuning - step up - F A# D# G# C C


INTRO

guitar 1

-11--1111---10----88-|
8--88------6---66----|
---------------------|
---------------------|
---------------------|
---------------------|

guitar 2

-11--1111---10---88-|
-8---8-8----6----66-|
--------------------|
--------------------|
--------------------|
--------------------|

VERSE

no guitar one except when the intro is played (roughly every two lines of singing)

guitar 2 continues its intro line throughout the verse

CHORUS

guitar 1

---------------------------------------------------------|
---------------------------------------------------------|
--------77777777------------------------77777777---------|
555555558888888833333333888888885555555588888888333333333|
555555558888888833333333666666665555555566666666333333333|
333333336666666611111111666666663333333366666666111111111|

guitar two

11111111111111111010101010101010888888881010101010101010|
8 8 8 8 8 8 8 8 8 8 8 8 8 8 8 8 666666666 6 6 6 6 6 6 6 |
--------------------------------------------------------|
--------------------------------------------------------|
--------------------------------------------------------|
--------------------------------------------------------|

11111111111111111010101010101010888888888|
8 8 8 8 8 8 8 8 8 8 8 8 8 8 8 8 666666666|
-----------------------------------------|
-----------------------------------------|
-----------------------------------------|
-----------------------------------------|


BRIDGE

just bass line then intro line for both guitar one and two

SOLO

guitar 1

------------------------------------------------|
11---10-7-2---4---11---13-15-181818181818181818-|
------------------------------------------------|
------------------------------------------------|
------------------------------------------------|
------------------------------------------------|

no guitar 2

OUTRO

guitar 1 plays intro

guitar 2 bends strings on the string known as b when in standard tuning - it bends on -8 
a bit then -10 for a bit then -17 for a bit then -22 for a bit

END


layout:

INTRO  x2
VERSE (with intro line thrown in every two lines or so)
CHORUS
INTRO  x2
VERSE (with intro line thrown in every two lines or so)
CHORUS
BRIDGE
CHORUS
SOLO
OUTRO

END

thankyou.
            
Submit corrections

comments powered by Disqus
↑ Back to top | Caesars Tabs for Jerk It Out. Lyrics for acoustic guitar and electric guitar. 1 Tablatures and chords are parodies/interpretations of the original songs. You may use it for private study, scholarship, research or language learning purposes only