» » »

Jerk It Out Tabs (ver.2)

Artists:  A B C D E F G H I J K L M N O P Q R S T U V W X Y Z # 

Jerk It Out Tabs (ver.2)

Caesars
Rating:
3/5 (6 votes)

Hard to play? Try these video lessons and learn fast.
                Guitar 1
 (intro) PLAY THREE TIMES 
E|-----7------77--------6----00|
B|--9-----9---99------7---7--55|
G|-----------------------------|
D|-----------------------------|
A|-----------------------------|
E|-----------------------------|

Chorus:

E|--------------------------------|
B|--------------------------------|
G|-----------8--8-----------------|
D|---6--6----9--9----4--4--2--2---|
A|---6--6----9--9----4--4--2--2---|
E|---4--4----7--7----2--2--0--0---|

Solo:
                                 
E|------play twice---------|-------------------------------------------|
B|-12-11-7-2-4--12-14-16-19|-------------------------------------------|
G|-------------------------|-1-2-2--1-2-2--1-2-2--1-2-2--1-2-2--1-2-2--|
D|-------------------------|-------------------------------------------|
A|-------------------------|-------------------------------------------|
E|-------------------------|-------------------------------------------|
            
Hard to play? Try these video lessons and learn fast. | Correct




comments powered by Disqus
↑ Back to top | Tablatures and chords are parodies/interpretations of the original songs. You may use it for private study, scholarship, research or language learning purposes only