» » »

Caesars, Crackin' Up Tabs (ver.1)

Artists:  A B C D E F G H I J K L M N O P Q R S T U V W X Y Z # 

Crackin' Up Tabs (ver.1)

Caesars Tabs
 Rating:
4/5 (4 votes)
Crackin' Up lessons Tabs too difficult? Try these video lessons and learn fast
                Band: Caesars

x=mute note
h=hammer-on
p=pull-off
/=slide up
\=slide down
tp=tremolo pick

Main part- Played through the whole song
e|-----------------------------------|
B|-----------------------------------|
G|--x-x-x-1-x-x-x-1-x-x-x-1-x-1-x-1--|
D|-----------------------------------|
A|-----------------------------------|
E|-----------------------------------|

Little part before the chorus 
e|---------------------------------------|
B|--8/9--9-9-9--9-9-11--11-11-11-11------|
G|---------------------------------------|
D|---------------------------------------|
A|---------------------------------------|
E|---------------------------------------|


Solo: Not on the guitar but you can play it like this.
e|--16-16-18-18-20-20tp--18-20-20-20-16\-11tp-16-16-18-18-20-20tp-18-20-20-20-16tp--|
B|----------------------------------------------------------------------------------|
G|----------------------------------------------------------------------------------|
D|----------------------------------------------------------------------------------|
A|----------------------------------------------------------------------------------|
E|----------------------------------------------------------------------------------|

Part at the end
e|-----------------------------------------------------------------|
B|--13-11-11-11-11-11-13p11p9----13-11-11-11-11-11-13-13p11p9------|
G|-----------------------------------------------------------------|
D|-----------------------------------------------------------------|
A|-----------------------------------------------------------------|
E|-----------------------------------------------------------------|

(continued)
e|-------------------------------18-16-16-16-16-16-18\16----18-16-16-16-16-16-13-16--|
B|--13-11-11-11-11-11-11-13----------------------------------------------------------|
G|-----------------------------------------------------------------------------------|
D|-----------------------------------------------------------------------------------|
A|-----------------------------------------------------------------------------------|
E|-----------------------------------------------------------------------------------|

(continued)
e|--16-16-16-18-18-18-16-----------------------------|
B|--------------------------12\11-11-11-11-11-13-11--|
G|---------------------------------------------------|
D|---------------------------------------------------|
A|---------------------------------------------------|
E|---------------------------------------------------|

(continued)
e|--13-----------------------|
B|-----11-11-11-11-11-13-11--|
G|---------------------------|
D|---------------------------|
A|---------------------------|
E|---------------------------|

Note: I play around with bends in the end part and on the part before the chorus.

That's it. Leave a comment or message and rate!
            
Submit corrections

comments powered by Disqus
↑ Back to top | Caesars Tabs for Crackin' Up. Lyrics for acoustic guitar and electric guitar. Tablatures and chords are parodies/interpretations of the original songs. You may use it for private study, scholarship, research or language learning purposes only