» » »

Boo Boo Goo Goo Tabs (ver.1)

Artists:  A B C D E F G H I J K L M N O P Q R S T U V W X Y Z # 

Boo Boo Goo Goo Tabs (ver.1)

Caesars
Rating:
0/5 (0 votes)

Hard to play? Try these video lessons and learn fast.
                (Intro)
Intro by Caesars - Boo boo goo goo

e------------------------------------|
B------------------------------------|
G-------------7--7--5--5-------------|
D--5---5-5----7--7--5--5-------------|
A--5---5-5----5--5--3--3-------------|
E--3---3-3---------------------------|

e------------------------------------|
B------------------------------------|
G-------------7--7--9--9-------------|
D--5---5-5----7--7--9--9-------------|
A--5---5-5----5--5--7--7-------------|
E--3---3-3---------------------------|
            
Hard to play? Try these video lessons and learn fast. | Correct




comments powered by Disqus
↑ Back to top | Tablatures and chords are parodies/interpretations of the original songs. You may use it for private study, scholarship, research or language learning purposes only