» » »

Caedmon\\\'s Call, Thankful Tabs (ver.1)

Artists:  A B C D E F G H I J K L M N O P Q R S T U V W X Y Z # 

Thankful Tabs (ver.1)

Caedmon\\\'s Call Tabs
Rating:
0/5 (0 votes)
Hard to play? Try these video lessons and learn fast.
                This has a moderate beat to it, if you listen to the song you can figure it out easily.  From the 40 acres CD...

1st Verse (play 3x)

e-0-0--0-0--0--------------------0-0-0-0-0-0--0-0-0-0-0--0-0-0-0-0
B-0-0--0-0--0--------------------0-0-0-0-0-0--0-0-0-0-0--1-1-1-1-1
G-1-1--1-1--1--1--1--1--1--1--1--4-4-4-4-4-4--2-2-2-2-2--2-2-2-2-2
D-2-2--0-0--2--0--2--0--2--0--2--2-2-2-2-2-2--2-2-2-2-2--2-2-2-2-2
A-2-2--0-0--2--0--2--0--2--0--2--4-4-4-4-4-4--0-0-0-0-0--0-0-0-0-0
E-0-0--0-0--0--------------------0-0-0-0-0-0--0-0-0-0-0--0-0-0-0-0

Ya know I ran accross...


Pre chorus (play 2x)

e-0-0--0-0--0-0-0--0-0--0-0
B-0-0--0-0--0-0-0--3-3--0-0
G-1-1--1-1--1-1-1--2-2--2-2
D-2-2--0-0--2-2-2--0-0--2-2
A-2-2--0-0--2-2-2--0-0--0-0
E-0-0--0-0--0-0-0-------0-0

              'Cuz no there is none righteous...

Chorus

e--------0-0-0-0-0--0-0-0-0-0--0-0-0-0-0--0-0-0--0-0-0-0-0
B----1-0-0-0-0-0-0--0-0-0-0-0--0-0-0-0-0--3-3-3--0-0-0-0-0
G---2----2-2-2-2-2--1-1-1-1-1--3-3-3-3-3--2-2-2--2-2-2-2-2
D-4------2-2-2-2-2--2-2-2-2-2--4-4-4-4-4--0-0-0--2-2-2-2-2
A--------0-0-0-0-0--2-2-2-2-2--4-4-4-4-4--0-0-0--0-0-0-0-0
E--------0-0-0-0-0--0-0-0-0-0--0-0-0-0-0---------0-0-0-0-0

  I said no not one (the notes part) then leads to So I am thankfull...

Post Chorus (play 2x)
e-0-0--0-0--0-0-0--0-0-0
B-0-0--0-0--0-0-0--0-0-0
G-1-1--1-1--1-1-1--1-1-1
D-2-2--0-0--2-2-2--0-0-0
A-2-2--0-0--2-2-2--0-0-0
E-0-0--0-0--0-0-0--0-0-0

2nd Verse (play 3x)

e-0-0--0-0--0--------------------0-0-0-0-0-0--0-0-0-0-0--0-0-0-0-0
B-0-0--0-0--0--------------------0-0-0-0-0-0--0-0-0-0-0--1-1-1-1-1
G-1-1--1-1--1--1--1--1--1--1--1--4-4-4-4-4-4--2-2-2-2-2--2-2-2-2-2
D-2-2--0-0--2--0--2--0--2--0--2--2-2-2-2-2-2--2-2-2-2-2--2-2-2-2-2
A-2-2--0-0--2--0--2--0--2--0--2--4-4-4-4-4-4--0-0-0-0-0--0-0-0-0-0
E-0-0--0-0--0--------------------0-0-0-0-0-0--0-0-0-0-0--0-0-0-0-0

'Cuz we're all still born...

Chorus (play & sing 2x this time)

e--------0-0-0-0-0--0-0-0-0-0--0-0-0-0-0--0-0-0--0-0-0-0-0
B----1-0-0-0-0-0-0--0-0-0-0-0--0-0-0-0-0--3-3-3--0-0-0-0-0
G---2----2-2-2-2-2--1-1-1-1-1--3-3-3-3-3--2-2-2--2-2-2-2-2
D-4------2-2-2-2-2--2-2-2-2-2--4-4-4-4-4--0-0-0--2-2-2-2-2
A--------0-0-0-0-0--2-2-2-2-2--4-4-4-4-4--0-0-0--0-0-0-0-0
E--------0-0-0-0-0--0-0-0-0-0--0-0-0-0-0---------0-0-0-0-0

  I said no not one (the notes part) then leads to So I am thankfull...

Ending (play 2x)

e-0-0--0-0--0-0-0
B-3-3--0-0--0-0-0
G-2-2--2-2--1-1-1
D-0-0--2-2--2-2-2
A-0-0--0-0--2-2-2         
E------0-0--0-0-0
            

comments powered by Disqus
↑ Back to top | Caedmon\\\'s Call Tabs for Thankful. Lyrics for acoustic guitar and electric guitar. Tablatures and chords are parodies/interpretations of the original songs. You may use it for private study, scholarship, research or language learning purposes only