» » »

Caedmon\\\'s Call, Prove Me Wrong Tabs (ver.1)

Artists:  A B C D E F G H I J K L M N O P Q R S T U V W X Y Z # 

Prove Me Wrong Tabs (ver.1)

Caedmon\\\'s Call Tabs
Rating:
0/5 (0 votes)
Prove Me Wrong lessons Tabs too difficult? Try these video lessons and learn fast
                -----------------------------------------------------------------------------
                             Prove Me Wrong - Caedmon's Call
-----------------------------------------------------------------------------

Tuning: (low to high) E A D# G# B e

The alternate tuning is to assist with the fingering only. In standard 
tuning,the notes on the 3rd and 4th strings will be shifted up a half-step. 
Or - if your 4th string can handle it - you may even tune the "D#" up another 
half-step to an "E", allowing you to play one more open string.

This tab follows the lyrical melody. 

*Verse 1*
e |---------------------------------0--0------------------------------------2|
B |------------------------0-------------------------------------------0-----|
G#|--------0------------0--3--------------------3--------0----------0----0---|
D#|-1-/-3-----1-x-1-/-3--------3--5--------3--5-----5--3-----1-/-3-----------|
A |--------------------------------------------------------------------------|
E |--------------------------------------------------------------------------|

e |-0-h5-\-4-p0-----2--0--0--0----------------------------0--------0---------|
B |--------------2-----3--3-----3-------------------0--------------5--5--4---|
G#|--------------------1--1--------1-------------0--3-----------------------3|
D#|-----------------------------------1-x-1-/-3--------3-----3--5------------|
A |--------------------------------------------------------------------------|
E |--------------------------------------------------------------------------|

e |-----------------------2--0-h5-\-4-p0-----2--0--0--0----------|
B |--------------------0------------------2-----3--3-----3-------|
G#|----0------------0---------------------------1--1--------1--0-|
D#|-3-----1--1-/-3-----------------------------------------------|
A |--------------------------------------------------------------|
E |--------------------------------------------------------------|


*Chorus 1* (2nd Time, go to *Bridge*)
e |-------------------------0-----0------------------------------------------|
B |----------------------0--5--5-----4--0-----2--0--------------------------0|
G#|-0--1--0-----------0--------------------0--------0-----0--1--0--------0---|
D#|----------3--1--3-----------------------------------3-----------3--3------|
A |--------------------------------------------------------------------------|
E |--------------------------------------------------------------------------|

e |----0-----0-----------------------------------------------------0---------|
B |----5--5-----4--0-----2--0--------------------------------------5--5--4--0|
G#|-------------------0-----3----0--0--1--1--0--------0--0-------------------|
D#|-1--------------------------1-----------------3--3--------3--1------------|
A |--------------------------------------------------------------------------|
E |--------------------------------------------------------------------------|

e |----------------|
B |----------------|
G#|----------------|
D#|-3--3--5--3-\-1-|
A |----------------|
E |----------------|


*Verse 2* (Go to *Chorus 1*)
e |-----------------------0-----0--0-----------------------------------------|
B |-----------------0---------------------------------------------------0----|
G#|-0---------------3-----------------------0------------------------0-----0-|
D#|---1-x-1--1-/-3-----3-----5--------3--5-----5--3-/-5-\-1-x-1-/-3----------|
A |--------------------------------------------------------------------------|
E |--------------------------------------------------------------------------|

e |-2--0-h5-\-4-p0--0--0--0----------|
B |-----------------3--3-----3-------|
G#|-----------------1--1--------1--0-|
D#|----------------------------------|
A |----------------------------------|
E |----------------------------------|


*Bridge* (Go to *Chorus 2*)
e |--------------------------------0--0--------------------------------------|
B |-------0---------------0--------------4-----------------------------------|
G#|-0-h3------------0-----------------------3--3-----5-p3-----3--------1-0---|
D#|----------1-/-3-----3-----1--1-----------------5--------5-----1--3-------3|
A |--------------------------------------------------------------------------|
E |--------------------------------------------------------------------------|

e |---------|
B |---------|
G#|----0----|
D#|-1-----3-|
A |---------|
E |---------|


*Chorus 2*
e |-------------------------0-----0------------------------------------------|
B |----------------------0--5--5-----4--0-----2--0--------------------------0|
G#|-0--1--0-----------0--------------------0--------0-----0--1--0--------0---|
D#|----------3--1--3-----------------------------------3-----------3--3------|
A |--------------------------------------------------------------------------|
E |--------------------------------------------------------------------------|

e |----0-----0-----------------------------------------------------------0---|
B |----5--5-----4--0-----2--0-----2--------------------------------------5--5|
G#|-------------------0-----3--3--------0--0--1--1--0-------0--0-------------|
D#|-1--------------------------------1-----------------3--3--------3--1------|
A |--------------------------------------------------------------------------|
E |--------------------------------------------------------------------------|

e |-----------------------0----------|
B |----------------------------------|
G#|-4--0------------------------3--3-|
D#|-------3--3--5--3-\-1-----5-------|
A |----------------------------------|
E |----------------------------------|

************************************

| /   slide up
| \   slide down
| h   hammer-on
| p   pull-off
| x   Tap String

************************************
            
Submit corrections

comments powered by Disqus
↑ Back to top | Caedmon\\\'s Call Tabs for Prove Me Wrong. Lyrics for acoustic guitar and electric guitar. Tablatures and chords are parodies/interpretations of the original songs. You may use it for private study, scholarship, research or language learning purposes only