» » »

Cady Groves, Refrain Tabs (ver.1)

Artists:  A B C D E F G H I J K L M N O P Q R S T U V W X Y Z # 

Refrain Tabs (ver.1)

Cady Groves Tabs
Rating:
5/5 (1 vote)
Refrain lessons Tabs too difficult? Try these video lessons and learn fast
                This is my very first tab, so please keep in mind that it might not be written
correctly. but anyway, I'm sure you'll figure it out. if not, you can e-mail me at
** ACOUSTIC **

INTRO:

"please refrain 'cause I can't take your" ...
e|-0
B|-0
G|-1
D|-2
A|-2
E|-0

"your constructive criticism anymore"
e|-0---------------0---------0-|
B|-0---------------0---------0-|
G|-2---------------6---------4-|
D|-2---------------6---------4-|
A|-0---------------4---------2-|
E|-0---------------0---------0-|

"and what the hell have you been building anyways?"
e|-0
B|-0
G|-1
D|-2
A|-2
E|-0

"between you and me, just a barricade, I gotta say"
e|-0----------------0---------0--0--0-|
B|-0----------------0---------0--0--0-|
G|-2----------------6---------4--1--2-|
D|-2----------------6---------4--2--2-|
A|-0----------------4---------2--2--0-|
E|-0----------------0---------0--0--0-|

VERSE:

"I can do so much better than this"
e|-0
B|-0
G|-1
D|-2
A|-2
E|-0

"I know, I know, I took the easy road again"
e|-0-----------------------0----0-|
B|-0-----------------------0----0-|
G|-2-----------------------6----4-|
D|-2-----------------------6----4-|
A|-0-----------------------4----2-|
E|-0-----------------------0----0-|

"And as for selling myself short"...
e|-0
B|-0
G|-1
D|-2
A|-2
E|-0

"I have become notorious"
e|-0------0-----0-|
B|-0------0-----0-|
G|-2------6-----4-|
D|-2------6-----4-|
A|-0------4-----2-|
E|-0------0-----0-|

"Oh-oh... oh, oh... I know how it goes"
e|-0------0---------0---------------x-|
B|-0------0---------0---------------x-|
G|-1------2---------1---------------x-|
D|-2------2---------2---------------x-|
A|-2------0---------2---------------x-|
E|-0------0---------0---------------x-|

CHROUS

"This is the part where I realize that I'm alone"..."Alone"
e|-0--------------------------------------------- e|-0---|
B|-0--------------------------------------------- B|-0---|
G|-2--------------------------------------------- G|-2---|
D|-2--------------------------------------------- D|-2---|
A|-0--------------------------------------------- A|-0---|
E|-0--------------------------------------------- E|-0---|


VERSE

"Ya always told me to be mature"...
e|-0
B|-0
G|-1
D|-2
A|-2
E|-0

"Well I just don't know myself anymore"
e|-0---------------0-----------0-----|
B|-0---------------0-----------0-----|
G|-2---------------6-----------4-----|
D|-2---------------6-----------4-----|
A|-0---------------4-----------2-----|
E|-0---------------0-----------0-----|

"And what's the point of being grown up anyway?"...
e|-0
B|-0
G|-1
D|-2
A|-2
E|-0

"I can be like you, give it all away"
e|-0-------------0---------0-|
B|-0-------------0---------0-|
G|-1-------------6---------4-|
D|-2-------------6---------4-|
A|-2-------------4---------2-|
E|-0-------------0---------0-|

"I got to say, I can do so much better than this"...
e|-x-------------0-|
B|-x-------------0-|
G|-x-------------1-|
D|-x-------------2-|
A|-x-------------2-|
E|-x-------------0-|

"I know, I know, I took the easy road again"
e|-0-----------------------0----0-|
B|-0-----------------------0----0-|
G|-2-----------------------6----4-|
D|-2-----------------------6----4-|
A|-0-----------------------4----2-|
E|-0-----------------------0----0-|

"And as for selling myself short"... "I have become notorious"
e|-0---------------------------- e|-0--------0------0-|
B|-0---------------------------- B|-0--------0------0-|
G|-1---------------------------- G|-2--------6------4-|
D|-2---------------------------- D|-2--------6------4-|
A|-2---------------------------- A|-0--------4------2-|
E|-0---------------------------- E|-0--------0------0-|

"Oh-oh... oh, oh... I know how it goes"
e|-0------0---------0---------------x-|
B|-0------0---------0---------------x-|
G|-1------2---------1---------------x-|
D|-2------2---------2---------------x-|
A|-2------0---------2---------------x-|
E|-0------0---------0---------------x-|

BRIDGE

"And everybody wants to fall in love in this cinematic fashion"
e|-0-----------------------------------------0-|
B|-0-----------------------------------------0-|
G|-1-----------------------------------------2-|
D|-2-----------------------------------------2-|
A|-2-----------------------------------------0-|
E|-0-----------------------------------------0-|

"I don't, I don't, woah-oh, oh, woah-oh"
e|-0------0--------0-|
B|-0------0--------0-|
G|-6------4--------2-|
D|-6------4--------2-|
A|-4------2--------0-|
E|-0------0--------0-|

"And everybody wants to fall in love in this cinematic fashion"
e|-0-----------------------------------------0-|
B|-0-----------------------------------------0-|
G|-1-----------------------------------------2-|
D|-2-----------------------------------------2-|
A|-2-----------------------------------------0-|
E|-0-----------------------------------------0-|

"I don't, I don't, woah-oh, oh, woah-oh"
e|-0------0--------0-----------------0-|
B|-0------0--------0-----------------0-|
G|-6------4--------2-----------------1-|
D|-6------4--------2-----------------2-|
A|-4------2--------0-----------------2-|
E|-0------0--------0-----------------0-|
            

comments powered by Disqus
↑ Back to top | Cady Groves Tabs for Refrain. Lyrics for acoustic guitar and electric guitar. Tablatures and chords are parodies/interpretations of the original songs. You may use it for private study, scholarship, research or language learning purposes only