» » »

Cactus, Bodhu Re Tabs (ver.1)

Artists:  A B C D E F G H I J K L M N O P Q R S T U V W X Y Z # 

Bodhu Re Tabs (ver.1)

Cactus Tabs
 Rating:
4/5 (4 votes)
Bodhu Re lessons Tabs too difficult? Try these video lessons and learn fast
1
                ****************************************************
Song - Bodhu Re
Artist - Cactus
Album - Rajar Raja
****************************************************
*****************************************************
This song is dedicated to all the Pota fans out there
*****************************************************
Notes:

1) When a chord is followed by a !, it means that you do not strum the chord.
   But instead you play it in one quick downward motion.

2) When a chord is followed by a *, it means that the chord has to be plucked.
   The plucking pattern for Bsus2 goes like this : 

	|-----2-------------2-----------e
	|----2------2------2------2-----B
	|---4------4-4----4------4-4----G
	|------4------4------4------4---D
	|-------------------------------A
	|-------------------------------E

3) I have given all the chords so that you can play it on the acoustic guitar. But
originally some of the chords are played in the mutes as for instance D and F#m of
"Tuhi amaye pagol korli re".

4) Guys playing this song on the electric guitar must take care of the distortion
control is very important.
****************************************************

Intro-

	|------------------------5~2-3-5-7~3--5~3-2------------------------e
	|---3-2-5-7-8~5--7~5-3------------------------3~2-5-7-8~5--7~5-3---B
	|------------------------------------------------------------------G
	|------------------------------------------------------------------D
	|------------------------------------------------------------------A
	|------------------------------------------------------------------E
            
Submit corrections

comments powered by Disqus
↑ Back to top | Cactus Tabs for Bodhu Re. Lyrics for acoustic guitar and electric guitar. 1 Tablatures and chords are parodies/interpretations of the original songs. You may use it for private study, scholarship, research or language learning purposes only