» » »

Super Barato Tabs (ver.1)

Artists:  A B C D E F G H I J K L M N O P Q R S T U V W X Y Z # 

Super Barato Tabs (ver.1)

Cachorro Grande
Rating:
0/5 (0 votes)

Hard to play? Try these video lessons and learn fast.
                "Super Barato [demo]"

Intro:     
e--5-5-5-5--5-4-3-3-3-3--3--5--5--|
B--5-5-5-5--5-4-3-3-3-3--3--7--5--|
G--6-6-6-6--6-5-4-4-4-4--4--5--6--|
D---------------------------------|
A---------------------------------|
E---------------------------------|

A7 G7 D7 A7 - Várias vezes

 A7             G7
Super Barato é um herói diferente
 D7             A7
voa sem capa, encomoda muita gente
 A7             G7
Salva sua raça da extinção
 D7                   A7
salvando as baratas da detetização

 A7       D7  A7        D7   A7      D7
Super Barato, super Barato, Super Barato
 E7
É viciado em Radi-SBT
 A7       D7  A7        D7   A7      D7
Super Barato, super Barato, Super Barato, 
 E7
Em breve nos ralos mais pertinhos de você!

 D7
Semana passada sua irmã se passou
 A7
morreu paralizada de overdose de Baygon
 D7
Ficou ali estirada e o Barato não chegou
 E7
e assim, no fim da vida, só restou o Rock and Roll

 A7     G7    D7     A7
Super Barato voa sem capa
 A7     G7      D7           A7
Salva sua raça, salvando as baratas

 A7       D7  A7        D7   A7      D7
Super Barato, super Barato, Super Barato
 E7
É viciado em Radi-SBT
 A7       D7  A7        D7   A7      D7
Super Barato, super Barato, Super Barato, 
 E7
Em breve nos ralos mais pertinhos de você!

 D7
Semana passada sua irmã se passou
 A7
morreu paralizada de overdose de Baygon
 D7
Ficou ali estirada e o Barato não chegou
 E7
e assim, no fim da vida, só restou o Rock and Roll

 A7     G7    D7     A7
Super Barato voa sem capa
 A7     G7      D7           A7
Salva sua raça, salvando as baratas

Solo
e--------------8-10-12-10-8----11-10-8-------------------|
B--8s10--8s10---------------10---------10------8---------|
G------------------------------------------7-9---9-7-5---|
D------------------------------------------------------7-| 
A--------------------------------------------------------|
E--------------------------------------------------------|
            
Hard to play? Try these video lessons and learn fast. | Correct




comments powered by Disqus
↑ Back to top | Tablatures and chords are parodies/interpretations of the original songs. You may use it for private study, scholarship, research or language learning purposes only