» » »

LunáTico Tabs (ver.1)

Artists:  A B C D E F G H I J K L M N O P Q R S T U V W X Y Z # 

LunáTico Tabs (ver.1)

Cachorro Grande
Rating:
0/5 (0 votes)

Tabs too difficult? Try these video lessons and learn fast.
                "Lunático"

Intro (2x)
e-----0-----------------------|
B-----2-3-3-2--2-2------------|
G-----2-2-2-2--2-2--6-7-6-7-6-| 
D-----2--------2-2--7-7-7-7-7-| 
A-----0--------0-0------------|
E--3--------------------------|

 A            G   A           G
Se em alguma hora  o sol bater e lhe dizer:
 A           G  A            G
Tu é um can*lha e se eu achar que eu sou
 
 D            Bm       G     F#     Bm  A
Lunático que se dane, sou eu que tô pagando
 D            Bm       G     F#         E
Lunático que se dane, sou eu que tô pirando


Interlude1: A C D  C

A        G   A                G
Não dê bola se eu te trancar num quarto uma semana
A        G   A   G
Não dê bola se eu te passar bolachas

 D               Bm    G       F#       Bm A 
Por debaixo da porta, sou que eu tô passando
 D          Bm   G     F#        E
Bolachas debaixo da porta, eu tô amando

Interlude2: 
e--5-5-3-5-5---5-3--5-5--3-3-3-----------|
B--5-5-5-7-7---7-5--5-5--5-3-3-----------|
G--6-6-5-7-7---7-5--6-6--5-4-4-----------|
D--7-7-5-7-7---7-5--7-7--5-5-5-5s7s5s7s5-|
A--7-7-3-5-5---5-3--7-7--3-5-5-5s7s5s7s5-|
E--5-5--------------5-5----3-3-3s5s3s5s3-|

e--5-5-3-5-5---5-5-3-3---0-|
B--5-5-5-7-7---7-7-5-5---0-|
G--6-6-5-7-7---7-7-5-5---1-|
D--7-7-5-7-7---7-7-5-5---2-|
A--7-7-3-5-5---5-5-3-3---2-|
E--5-5-------------------0-|

 A          G   A            G
Se alguma hora o sol nascer e lhe dizer:
 A           G  A            G
Tu é um can*lha e se eu achar que eu sou

 D            Bm       G     F#     Bm  A
Lunático que se dane, sou eu que tô pagando
 D            Bm       G     F#         E
Lunático que se dane, sou eu que tô pirando

Interlude1 

Outro (3x)
e--3--5----------5-5------------|   
B--3--5----------5-5------------|   
G--4--6---7-7-6--6-6--6-7-6-7-6-|   
D--5--7---7-7-7--7-7--7-7-7-7-7-| 
A--5--7----------7-7------------|
E--3--5----------5-5------------|

Final
e--3-5-5--3-5-5--3-5---5----|
B--3-5-5--3-5-5--3-5--------|
G--4-6-6--4-6-6--4-6-----6b-|
D--5-7-7--5-7-7--5-7--------|
A--5-7-7--5-7-7--5-7--------|
E--3-5-5--3-5-5--3-5--------|
            
Tabs too difficult? Try these video lessons and learn fast.




comments powered by Disqus
↑ Back to top | Tablatures and chords are parodies/interpretations of the original songs. You may use it for private study, scholarship, research or language learning purposes only