» » »

Cachorro Grande, Dia Perfeito Tabs (ver.1)

Artists:  A B C D E F G H I J K L M N O P Q R S T U V W X Y Z # 

Dia Perfeito Tabs (ver.1)

Cachorro Grande Tabs
 Rating:
4/5 (4 votes)
Dia Perfeito lessons Tabs too difficult? Try these video lessons and learn fast
1
                "Dia Perfeito"
Cachorro Grande

Riff 1              Riff 2 
e-----------------||-----------------------------|
B--8---8---8------||-----------------8---8---8---|
G----9---9--------||--------5-7--7s9---9---9-----|
D------------10-7-||-7-5-7---------------------7-|
A-----------------||-----------------------------|
E-----------------||-----------------------------|

 A    C   E   A          C           E
Dia perfeito pára na esquina e diz good-bye
 A              C  E
Flutua como uma nuvem
 A  PAUSA                   Riff 1
She really have a groove
 A   C E  A             C   E
Fina flor e disse você é um amor
 A                C     E
E disse algo que me entendia
 Riff 2
Era isso que eu sentia

 Dm         E7
E me falou dos seus romances 
          C        F       G       E7             Am  E
E quando pensa em aprontar ela vai e apronta antes

 A       C  E  A         C E
E eu realmente não creio
 A         C  E
Que de fina flor
 Riff 2
Good bye, não esteja cheio

 Dm        E7
E me disse esquisitices
          C        F              G       E7             Am  E
E que também vai se guardar para quando o carnaval chegar


Solo:
e--------5--------------5-----------------------5---------5---5---5----------------------|
B------5---6-8-5------5-----6-5---------------5---6-8-10----5---3----------------8-------|
G----5--------------5-----7-----------------5-----------------------5----5-7-7s9---9-7-5-|
D--7--------------7-------------7-5-5-----7----------------------------7-----------------|
A----------------------------------------------------------------------------------------|
E----------------------------------------------------------------------------------------|

 Dm         E7
E me falou dos seus romances 
          C        F       G       E7             Am  E
E quando pensa em aprontar ela vai e apronta antes

 A    C   E   A          C           E
Dia perfeito pára na esquina e diz good-bye
 A              C  E
Flutua como uma nuvem
 A  PAUSA                   Riff 1
She really have a groove

Solo2
e--------5--------------5-----------------------5--------------5--------5---|
B------5---6-8-5------5-----6-5---------------5---6-8-5------5-----6-5--5---|
G----5--------------5-----7-----------------5--------------5-----7------5---|
D--7--------------7-------------7-5-5-----7--------------7--------------7---|
A---------------------------------------------------------------------------|
E---------------------------------------------------------------------------|
            
Submit corrections

comments powered by Disqus
↑ Back to top | Cachorro Grande Tabs for Dia Perfeito. Lyrics for acoustic guitar and electric guitar. 1 Tablatures and chords are parodies/interpretations of the original songs. You may use it for private study, scholarship, research or language learning purposes only