» » »

Cachorro Grande, Desentoa Tabs (ver.1)

Artists:  A B C D E F G H I J K L M N O P Q R S T U V W X Y Z # 

Desentoa Tabs (ver.1)

Cachorro Grande Tabs
 Rating:
4/5 (4 votes)
Desentoa lessons Tabs too difficult? Try these video lessons and learn fast
1
                Banda: Cachorro Grande
Música: Desentoa
Álbum: Pista Livre

Intro e Verso  (são iguais)

guitarra 1
e|-12-12--12-12--12-12--12-12-----------------------|
B|-12-12--12-12--12-12--12-12---8-8--8-8--8-8--8----|
G|--9--9---9--9---9--9---9--9---9-9--9-9--9-9--9----|
D|--------------------------------------------------|
A|--------------------------------------------------|
E|--------------------------------------------------|


guitarra 2

e|----------------------------------------------------------|
B|----------------------------------------------------------|
G|--9-9-x-9-9-x-9-9-x-9-9-x---------------------------------|
D|--9-9-x-9-9-x-9-9-x-9-9-x-10-10-x-10-10-x-10-10-x-10-10---|
A|--7-7-x-7-7-x-7-7-x-7-7-x-10-10-x-10-10-x-10-10-x-10-10---|
E|---------------------------8--8-x--8--8-x--8--8-x--8--8---|

ou ainda ... como à música tme muitos efeitos pode-se fazer isso :

e|-------------------------------------------------------------|
B|-------------------------------------------------------------|
G|--9-9-x-9-9-x-9-9-x-9-9-x------------------------------------|
D|--9-9-x-9-9-x-9-9-x-9-9-x--5-5-7-5-5-5-7-5-5-5-7-5-5-5-7-5---|
A|--7-7-x-7-7-x-7-7-x-7-7-x--3-3-3-3-3-3-3-3-3-3-3-3-3-3-3-3---|
E|-------------------------------------------------------------|


Refrão

guitarra 1

e|-------0---------0----------0----------0------|
B|-----0--0-0----0--0-0-----0--0-0-----0--0-0---|
G|----0-0--0----0-0--0-----0-0--0-----0-0--0----| Repetir mais 1x.
D|----------------------------------------------| 
A|--2---------3----------4----------3-----------|
E|----------------------------------------------|


guitarra 2

e|--0-----------------| 
B|--0-----------------|  Obs : Deixar soar as notas .
G|--0----5----6-------|
D|--2----5----6-------|  Repetir mais 1x.
A|--2----3----4-------|
E|--------------------|


Pós-Refrão

guitarra 1
e|-12-12--12-12--12-12--12-12-----------------------|
B|-12-12--12-12--12-12--12-12---8-8--8-8--8-8--8----|
G|--9--9---9--9---9--9---9--9---9-9--9-9--9-9--9----|
D|--------------------------------------------------|
A|--------------------------------------------------|
E|--------------------------------------------------|

guitarra 2

e|------------------------------------------------------------------|
B|------------------------------------------------------------------|
G|--9-9-11-11-12-12-11-11-9-9--14-14-12-12-11-11--5-5---5-5---5-5---|
D|--9-9-11-11-12-12-11-11-9-9--14-14-12-12-11-11--5-5---5-5---5-5---|
A|--7-7--9--9-10-10--9--9-7-7--12-12-10-10--9--9--3-3-0-3-3-0-3-3---|
E|------------------------------------------------------------------|


Verso 2 o Refrão e o Pós-Refrão são iguais .

Solo 

guitarra 1

e|-----------------------------------------------------------
B|-----------------------------------------------------------
G|--7/9-9-9-7--7-9-9-9--9-------7------7---7-9-7---7-9-7-----
D|-----------9--------7---10-10--10-10---10------10----------
A|-----------------------------------------------------------
E|-----------------------------------------------------------

e|-------------------------------------------------|
B|-------------------------------------------------|
G|-9-9-9-7--7-9-9-9-7--7---7-9-7--7-9-7--7-9-7\0~--|
D|--------9----------9---10-----10-----10----------|
A|-------------------------------------------------|
E|-------------------------------------------------|


guitarra 2

e|----------------------------------------------------------|
B|----------------------------------------------------------|
G|--9-9-x-9-9-x-9-9-x-9-9-x---------------------------------|
D|--9-9-x-9-9-x-9-9-x-9-9-x-10-10-x-10-10-x-10-10-x-10-10---|
A|--7-7-x-7-7-x-7-7-x-7-7-x-10-10-x-10-10-x-10-10-x-10-10---|
E|---------------------------8--8-x--8--8-x--8--8-x--8--8---|



Refrão é igual .


Parte Final

guitarra 1

e|------------------------------------------------------|
B|------------------------------------------------------|
G|--5-5---5-5---5-5---5---5-----5/9-x-8-x-7-x-----------|
D|--5-5---5-5---5-5---5---5-------------------11-x-10---|
A|--3-3-0-3-3-0-3-3-0-3-0-3-0---------------------------|
E|------------------------------------------------------|

                                                                   Repetir Até o Final .
guitarra 2 

e|--x-z---x-x---x-x---x---x------------------------------------|
B|--1-1-1-1-1-1-1-1-1-1-1-1------------------------------------|
G|--x-x-0-x-x-0-x-x-0-x-0-x------------------------------------|
D|--2-2-0-2-2-0-2-2-0-2-0-2--2-1-0-----------------------0-1---|
A|--3-3-0-3-3-0-3-3-0-3-0-3--------3-2-0-----------0-2-3-------|
E|---------------------------------------3-2-0-2-3-------------|


Fãs de Cachorro Grande me adicionem no MSN aí :

Bem é isso , até mais.
            
Submit corrections

comments powered by Disqus
↑ Back to top | Cachorro Grande Tabs for Desentoa. Lyrics for acoustic guitar and electric guitar. 1 Tablatures and chords are parodies/interpretations of the original songs. You may use it for private study, scholarship, research or language learning purposes only