>
 >
True

True Guitar Tabs

Cabrera Ryan - True chords, tabs, tablatures, lyrics

Guitar lessons | Add/correct | Request | Top 50 tabs Artists:  A B C D E F G H I J K L M N O P Q R S T U V W X Y Z 0-9

True Guitar Tabs – Cabrera Ryan

CD, Sheet music, Poster

Do you like True? Share with your friends now
ChordsTabs
Tuning:
eb
Bb
Gb
Db
Ab
Eb

VERSE/INTRO

        I  wont   talk           I wont   breathe         i wont   move, till you     finally   see
e|-------------x----------x------------x-----------x------------x-----------------x----------x--------x------|
B|-------------x----------x------------x-----------x------------x-----------------x----------x--------x------|
G|------5--5---x--4-------x------0h2---x---4-------x------5--5--x--4--------------x---0h2----x--4-----x------|
D|-------------x------0---x------------x-------0---x------------x--------0--------x----------x------0-x------|
A|-------------x----------x------------x-----------x------------x-----------------x----------x--------x------|
E|---3---------x--3-------x---3--------x---3-------x---3--------x--3--------------x---3------x--3-----x------|


    That you  belong with   me.
e|---------------------x----------0---x---------x--------0----x--------------------------|
B|---------------------x--------------x---------x-------------x--------------------------|
G|------------0h2------x----0---------x---0h2---x---0---------x--------------------------|
D|---------------------x----2---------x---------x---2---------x--------------------------|
A|------------2--------x----2---------x---2-----x---2---------x--------------------------|
E|---------------------x--------------x---------x-------------x--------------------------|

        you might think     that i dont look         but deep inside              the corner of my mind
e|-------------x----------x------------x-----------x------------x-----------------x----------x--------x------|
B|-------------x----------x------------x-----------x------------x-----------------x----------x--------x------|
G|------5--5---x--4-------x------0h2---x---4-------x------5--5--x--4--------------x---0h2----x--4-----x------|
D|-------------x------0---x------------x-------0---x------------x--------0--------x----------x------0-x------|
A|-------------x----------x------------x-----------x------------x-----------------x----------x--------x------|
E|---3---------x--3-------x---3--------x---3-------x---3--------x--3--------------x---3------x--3-----x------|

      i'm  attatched to you 
e|---------------------x----------0---x---------x--------0----x--------------------------|
B|---------------------x--------------x---------x-------------x--------------------------|
G|------------0h2------x----0---------x---0h2---x---0---------x--------------------------|
D|---------------------x----2---------x---------x---2---------x--------------------------|
A|------------2--------x----2---------x---2-----x---2---------x--------------------------|
E|---------------------x--------------x---------x-------------x--------------------------|


      I'm weak        it's true                      (I'm just scared to know the answers)
e|--------------0--x------------0--x------------0--x------------0--x|
B|-----5-----------x---7-----------x---8-----------x---7-----------x|
G|-----------4-----x---------0-----x---------7-----x---------0-----x|
D|--------5--------x------7--------x------9--------x------7--------x|
A|-----3-----------x---5-----------x---7-----------x---5-----------x|
E|-----------------x---------------x---------------x---------------x|

           do you     want me too?                   cause my heart keeps falling faster.
e|--------------0--x------------0--x------------0--x------------0--x------------0---------|
B|-----5-----------x---7-----------x---8-----------x---7-----------x---5------------------|
G|-----------4-----x---------0-----x---------7-----x---------0-----x---------4------------|
D|--------5--------x------7--------x------9--------x------7--------x------5---------------|
A|-----3-----------x---5-----------x---7-----------x---5-----------x---3------------------|
E|-----------------x---------------x---------------x---------------x----------------------|

(chorus)
          G
I've waited all my life,
         g/f#
to cross this line,
E minor                 Cadd9
do the only thing thats true.
       G
so i will not hide,
       g/f#
its time to try,
E minor             Cadd9
anything to be with you,

B diminished    Em7th
all my          life i've waited,
this is true.


Verse again


you're welcome





Comments


Popular Cabrera Ryan tabs & chords
40 Kinds Of Sadness Chords
Mirage Chords
On The Way Down 2 Chords
Reasons Chords
Take It All Away Chords
Exit To Exit Tabs
Last Winter Tabs
On The Way Down 2 Tabs
Shame On Me (Intro) Tabs
True (Intro) Tabs


Song lyrics



↑ Back to top | Tablatures and chords are parodies/interpretations of the original songs. You may use it for private study, scholarship, research or language learning purposes only
© 2014 AZChords.com Contact us | Privacy policy | DMCA | Add/correct tabs | Request tabs | Top 50 tabs