» » »

Lost Again Tabs (ver.1)

Artists:  A B C D E F G H I J K L M N O P Q R S T U V W X Y Z # 

Lost Again Tabs (ver.1)

Cabrera Ryan
Rating:
0/5 (0 votes)

Hard to play? Try these video lessons and learn fast.
                Tuning:Open D

Notes: 2 guitars used on open D tuning.  He uses a lot of hammers and pull-offs when
playing chords.  He uses a lot of variations so listen to the song to get the exact ones. 

[Intro]

Guitar1:
A |-----0---|-----0h2-|-----0h2-|-----2--|
D |-----0---|-----0---|-----0---|-----0--|
F#|-----0---|-----0---|-----0---|-----0--| x3
D |-----0---|-----0---|-----0---|-----0--|
A |-----0---|-----0---|-----0---|-----0--|
D |--0------|--5------|--4------|--2-----|

end on:
A |-----0---|-----0h2-|-----0h2-|------0-|
D |-----0---|-----0---|-----0---|-----0--|
F#|-----0---|-----0---|-----0---|----0---|
D |-----0---|-----0---|-----0---|---0----|
A |-----0---|-----0---|-----0---|--0-----|
D |--0------|--5------|--4------|-0------|

Guitar 2: After Guitar 1 repeats twice
A |--12-------12----12-11-------11----11-|
D |-----12-12----12-------12-12----12----|
F#|--------------------------------------| x3
D |--------------------------------------|
A |--------------------------------------|
D |--------------------------------------|

end on:
A |--12-------12----12-11-|
D |-----12-12----12-------|
F#|-----------------------|
D |-----------------------|
A |-----------------------|
D |-----------------------|


[Verse]           
                 
Both Guitars:
A |-----0---|-----0h2-|-----0h2-|-----2--|
D |-----0---|-----0---|-----0---|-----0--|
F#|-----0---|-----0---|-----0---|-----0--| x3
D |-----0---|-----0---|-----0---|-----0--|
A |-----0---|-----0---|-----0---|-----0--|
D |--0------|--5------|--4------|--2-----|

1st Guitar:
A |----0----|----0----|----0h4--|----0----|
D |----0----|----0----|----0----|----0----|
F#|----0----|----0----|----0----|----0----| x2
D |----0----|----0----|----0----|----0----|
A |----0----|----0----|----0----|----0----|
D |----0----|----5----|----4----|----2----|

2nd Guitar:
A |----2----|
D |----0----|
F#|----0----|
D |----0----|
A |----0----|
D |----0----|

Lost and then found oh I know you're around,
I can't help but to look in the clouds,
If I had to guess as to where you would be,
it's looking out on over me,
Well I never thought that moment would come
when I'd have to look out my window alone,
now I'm watching the stars and still hoping to see
the day when you will come back to me,


[Chorus]

Both Guitars:
       Bm        G         D         A  
A |----0----|----5----|----0h4--|----0h2--|
D |----2----|----5----|----0----|----0----|
F#|----0----|----5----|----0----|----3----| x2 
D |----0----|----5----|----0----|----2----|
A |----2----|----5----|----0----|----0----|
D |----0----|----5----|----0----|----x----|

And everything that you thought was fine
has turned its back into more than time,
When You said to me that its all alright,
you can't find yourself today,


[Bridge]

Guitar 1:
A |-----0---|-----0h2-|-----0h2-|-----2--|
D |-----0---|-----0---|-----0---|-----0--|
F#|-----0---|-----0---|-----0---|-----0--| x2
D |-----0---|-----0---|-----0---|-----0--|
A |-----0---|-----0---|-----0---|-----0--|
D |--0------|--5------|--4------|--2-----|

Guitar 2:
A |--12-------12----12-11-------11----11-|
D |-----12-12----12-------12-12----12----|
F#|--------------------------------------| x4
D |--------------------------------------|
A |--------------------------------------|
D |--------------------------------------|


[Verse]

Guitar 1:
A |----0----|----0----|----0h4--|----0----|
D |----0----|----0----|----0----|----0----|
F#|----0----|----0----|----0----|----0----| x2
D |----0----|----0----|----0----|----0----|
A |----0----|----0----|----0----|----0----|
D |----0----|----5----|----4----|----2----|

Guitar 2:
A |--12-------12----12-11-------11----11-|
D |-----12-12----12-------12-12----12----|
F#|--------------------------------------| x4
D |--------------------------------------|
A |--------------------------------------|
D |--------------------------------------|

Lost and then found how I live for that day,
some call me crazy for thinking this way,
my life seems so empty, its rained for a while
Your eyes still glow, How I love your smile


[Chorus]

Guitar 1:
       Bm        G         D         A  
A |----0----|----5----|----0h4--|----0h2--|
D |----2----|----5----|----0----|----0----|
F#|----0----|----5----|----0----|----3----| x4 
D |----0----|----5----|----0----|----2----|
A |----2----|----5----|----0----|----0----|
D |----0----|----5----|----0----|----x----|

Guitar 2:
A |--12-------12----12-11-------11----11-|
D |-----12-12----12-------12-12----12----|
F#|--------------------------------------| x8
D |--------------------------------------|
A |--------------------------------------|
D |--------------------------------------|

And everything that you thought was fine
has turned its back into more than time,
When You said to me that its all alright,
you can't find yourself today,

And everything that you thought was fine
has turned its back into more than time,
When You said to me that its all alright,
you can't find your own way.


[Bridge]

Guitar 1:
       Bm        G         D         A  
A |----0----|----5----|----0h4--|----0h2--|
D |----2----|----5----|----0----|----0----|
F#|----0----|----5----|----0----|----3----| x6 
D |----0----|----5----|----0----|----2----|
A |----2----|----5----|----0----|----0----|
D |----0----|----5----|----0----|----x----|

Guitar 2:
A |--12-------12----12-11-------11----11-|
D |-----12-12----12-------12-12----12----|
F#|--------------------------------------| x12
D |--------------------------------------|
A |--------------------------------------|
D |--------------------------------------|


[Chorus]

Guitar 1:
       Bm        G         D         A  
A |----0----|----5----|----0h4--|----0h2--|
D |----2----|----5----|----0----|----0----|
F#|----0----|----5----|----0----|----3----| x2 
D |----0----|----5----|----0----|----2----|
A |----2----|----5----|----0----|----0----|
D |----0----|----5----|----0----|----x----|

A |----0----|----0----|----0----|----0----|
D |----0----|----0----|----0----|----0----|
F#|----0----|----0----|----0----|----0----| x2
D |----0----|----0----|----0----|----0----|
A |----0----|----0----|----0----|----0----|
D |----0----|----5----|----4----|----2----|

A |----0----|----5----|----0h4--|----0h2--|
D |----2----|----5----|----0----|----0----|
F#|----0----|----5----|----0----|----3----| x4 
D |----0----|----5----|----0----|----2----|
A |----2----|----5----|----0----|----0----|
D |----0----|----5----|----0----|----x----|

A |----0----|----0----|----0----|----0----|
D |----0----|----0----|----0----|----0----|
F#|----0----|----0----|----0----|----0----| x4
D |----0----|----0----|----0----|----0----|
A |----0----|----0----|----0----|----0----|
D |----0----|----5----|----4----|----2----|

end on:
A |----2----|
D |----0----|
F#|----0----|
D |----0----|
A |----0----|
D |----0----|

Guitar 2:
A |--12-------12----12-11-------11----11-|
D |-----12-12----12-------12-12----12----|
F#|--------------------------------------| x24
D |--------------------------------------|
A |--------------------------------------|
D |--------------------------------------|

And everything that you thought was fine
has turned its back into more than time,
When You said to me that its all alright,
you can't find yourself today,

And everything that you thought was fine
has turned its back into more than time,
When You said to me that its all alright,
you can't find yourself today.
            
Hard to play? Try these video lessons and learn fast. | Correct




comments powered by Disqus
↑ Back to top | Tablatures and chords are parodies/interpretations of the original songs. You may use it for private study, scholarship, research or language learning purposes only