>
 >
Globo 1

Globo 1 Guitar Tabs

Cabezones - Globo 1 chords, tabs, tablatures, lyrics

Guitar lessons | Add/correct | Request | Top 50 tabs Artists:  A B C D E F G H I J K L M N O P Q R S T U V W X Y Z 0-9

Globo 1 Guitar Tabs – Cabezones

CD, Sheet music, Poster

Do you like Globo 1? Share with your friends now
TabsTabs v2
-------------------------------------------------------------------------------
                             Globo - Cabezones
-------------------------------------------------------------------------------

Tuning: Dropp D

Riff1
e|--------------------------------------------------------------------------------------|
B|--------------------------------------------------------------------------------------|
G|--------------------------------------------------------------------------------------|
D|-2-2--0--4--2-2--4-4--9---------------------------------------------------------------|
A|-2-2--0--4--2-2--4-4--7---------------------------------------------------------------|
D|-2-2--0--4--2-2--4-4--7---------------------------------------------------------------|

Riff2
e|-------------------------------|
B|-------------------------------|
G|-------------------------------|
D|--6------4------7-----6----6\--|
A|--4-X16--2-X16--5-X16-4-X9-4\--|
D|-------------------------------|
Tirame otra vez...

Riff1

Riff3
e|------------------------------------------------------------|
B|------------------------------------------------------------|
G|------------------------------------------------------------|
D|--6-----4-----7-----6-----6--7-7--9------4-----7-----6------|
A|--4-X16-2-X16-5-X16-4-X16-4--5-5--7-X16--2-X16-5-X16-4-X16--|
D|------------------------------------------------------------|
Tirame otra vez...

Riff4
e|---------------------------------------------------------------------------|
B|---------------------------------------------------------------------------|
G|---------------------------------------------------------------------------|
D|--4-4---x-7---2-3-2-0--0-2-3-2-0--0-2-3-2-0-2-3-2-0--0-2-3-2-0--0-2-3-2-0--|
A|--4-4---x-7---2-3-2-0--0-2-3-2-0--0-2-3-2-0-2-3-2-0--0-2-3-2-0--0-2-3-2-0--|
D|--4-4---x-7---2-3-2-0--0-2-3-2-0--0-2-3-2-0-2-3-2-0--0-2-3-2-0--0-2-3-2-0--|
Acuerdate de mi...

Riff5
e|------------------------------------------------------------|
B|------------------------------------------------------------|
G|------------------------------------------------------------|
D|-4-4--x-7---2-3-2-0--0-2-3-2-0--0-2-3-2-0-2-3-2-0--0-2-3-2--|
A|-4-4--x-7---2-3-2-0--0-2-3-2-0--0-2-3-2-0-2-3-2-0--0-2-3-2--|
D|-4-4--x-7---2-3-2-0--0-2-3-2-0--0-2-3-2-0-2-3-2-0--0-2-3-2--|

E               F#    D E
No lo vuelvo a hacer, cai
E           F#           D
y aprendi a volar por ti

Riff X2

Riff3 X1

Riff 6
e|--------------------------------------------------------------------------------------------------------------------------|
B|--------------------------------------------------------------------------------------------------------------------------|
G|--------------------------------------------------------------------------------------------------------------------------|
D|--2-3-2-0--0-2-3-2-0--0-2-3-2-0-2-3-2-0--0-2-3-2-0--0-2-3-2-0-2-3-2-0--0-2-3-2-0--0-2-3-2-0-2-3-2-0--0-2-3-2-x-x-x-x-x-x--|
A|--2-3-2-0--0-2-3-2-0--0-2-3-2-0-2-3-2-0--0-2-3-2-0--0-2-3-2-0-2-3-2-0--0-2-3-2-0--0-2-3-2-0-2-3-2-0--0-2-3-2-x-x-x-x-x-x--|
D|--2-3-2-0--0-2-3-2-0--0-2-3-2-0-2-3-2-0--0-2-3-2-0--0-2-3-2-0-2-3-2-0--0-2-3-2-0--0-2-3-2-0-2-3-2-0--0-2-3-2-x-x-x-x-x-x--|

Riff6.2
e|----------------------------------------------------------------------------------------------------------|
B|----------------------------------------------------------------------------------------------------------|
G|----------------------------------------------------------------------------------------------------------|
D|--2-3-2-0--0-2-3-2-0--0-2-3-2-0-2-3-2-0--0-2-3-2-0--0-2-3-2-0-2-3-2-0--0-2-3-2-0--0-2-3-2-0-2-3-2-0--0-2--|
A|--2-3-2-0--0-2-3-2-0--0-2-3-2-0-2-3-2-0--0-2-3-2-0--0-2-3-2-0-2-3-2-0--0-2-3-2-0--0-2-3-2-0-2-3-2-0--0-2--|
D|--2-3-2-0--0-2-3-2-0--0-2-3-2-0-2-3-2-0--0-2-3-2-0--0-2-3-2-0-2-3-2-0--0-2-3-2-0--0-2-3-2-0-2-3-2-0--0-2--|



| /  slide up
| \  slide down
| h  hammer-on
| p  pull-off
| ~  vibrato
| +  harmonic
| x  Mute note
===============================================================================





Comments


Popular Cabezones tabs & chords
Lunes Chords
Pasajero En Extincion Chords
Pasajero En Extincion 1 Chords
Despegar Tabs
Frio Tabs
Globo Tabs
Hombre Paranoico Tabs
Lunes Ukulele
Mi Pequea Infinidad Ukulele
Pasajero En Extincion Ukulele


Song lyrics



↑ Back to top | Tablatures and chords are parodies/interpretations of the original songs. You may use it for private study, scholarship, research or language learning purposes only
© 2014 AZChords.com Contact us | Privacy policy | DMCA | Add/correct tabs | Request tabs | Top 50 tabs