>
 >
Frio

Frio Guitar Tabs

Cabezones - Frio chords, tabs, tablatures, lyrics

Guitar lessons | Add/correct | Request | Top 50 tabs Artists:  A B C D E F G H I J K L M N O P Q R S T U V W X Y Z 0-9

Frio Guitar Tabs – Cabezones

CD, Sheet music, Poster

Do you like Frio? Share with your friends now
Tabs
Tunning: Dropped D

(D, A, D, G, B, e)

 

 

Intro:

(2x)

e |--------------------------------------------------------------------------------|

B |--------------------------------------------------------------------------------|

G |-----------------------------------------------------5-3---------3---------3----|

D |--------------0--2------------------------------------------6--6----6--5-----5--|

A |------5----3---------3p5-------3-5-8---5-8-5-3--6-3-----------------------------|

D |-----------------------------1--------------------------------------------------|

 

Verse 1:

e  |-------------------------------------------------------------------------------|

B  |-------------------------------------------------------------------------------|

G  |----------7---------7-------------3--------3-----------------------------------|

D  |-------5----------5---------6--6----6--5-----5---------------------------------|

A  |----3----------3---------------------------------------------------------------|

D  |-------------------------------------------------------------------------------|

3 times and then:

(Distortion in 2nd verse)

D  |----5---5--5---6--6---6-6-6-6--------------------------------------------------|

A  |----5---5--5---6--6------------------------------------------------------------|

D  |----5---5--5---6--6------------------------------------------------------------|

 

Cut 1:

 

e |-------------------------------------------------------------------|

B |------6----8/10-------6---------6----------------------------------|

G |---7----7---------8------8------8---------5-3---------3-------3----|

D |----------------------------8---8---------------6--6----6--5-----5-|

A |--------------------------------------3----------------------------|

D |-------------------------------------------------------------------|

 

e |-------------------------------------------------------------------|

B |------6----8/10-------6-------6------------------------------------|

G |---7----7---------8------8-------7--------5-3---------3-------3----|

D |----------------------------8-------8-----------6--6----6--5-----5-|

A |--------------------------------------3----------------------------|

D |-------------------------------------------------------------------|

 

Cut 2:

(2x)

e |---------------------0-------------------------------|

B |---------------------0-------------------------------|

G |---------------------0-----5----5p3------------------|

D |---0-----------1-----0-----5----------5-5---/6-6-----|

A |---0----3p0----1-----0-----3-------------------------|

D |---0--------0--1-----0-------------------------------|

 

Verse 2:

                     (3x)

e |-----------------------|----------------------|

B |-----------------------|----------------------|

G |--5-5-5-5-5-8-8-8-8-8--|----------------------|

D |--5-5-5-5-5-8-8-8-8-8--|--5-5-5-5-5-6-6-6-6-6-|

A |--3-3-3-3-3-6-6-6-6-6--|--5-5-5-5-5-6-6-6-6-6-|

D |-----------------------|--5-5-5-5-5-6-6-6-6-6-|

  - - - - - -pm- - - - - - 

 

Cut 3:

 

e |--------------------------------------------------------|

B |--------------------------------------------------------|

G |-----------------------------5--5-5-5p3-6--6-6-6-6-6-6--|

D |--0--0-0-0-0-0-1--1-1-1--1-1-5--5-5-----6--6-6-6-6-6-6--|

A |--0--0-0-0-0-0-1--1-1-1--1-1-3--3-3-----6--6-6-6-6-6-6--|

D |--0--0-0-0-0-0-1--1-1-1--1-1----------------------------|

    - - - - - - - - - - - -  -pm- -  - - - - - - - - - - - - 

 

Cut 4:

 

Guitar 1:

 

G |--5--5--5--5--5--5--5--5--8--8--8--8-------------|

D |--5--5--5--5--5--5--5--5--8--8--8--8--3--3--3--3-|

A |--3--3--3--3--3--3--3--3--6--6--6--6--3--3--3--3-|

D |--------------------------------------3--3--3--3-|

 

Guitar 2:

 

e |--13p10--------------13p10-------------------------------------|

B |----------11-----------------11--------------------------------|

G |--------------12------------------12------7------7--------7----|

D |---------------------------------------------8------8-8------8-|

 

Bridge:

(2x)

G |-----------------------------------8-8-8-8-10-10-10-10--|

D |--10--10--8h10--10--8h10--10p8h10--8-8-8-8-10-10-10-10--|

A |--10--10--8h10--10--8h10--10p8h10--6-6-6-6--8--8--8--8--|

D |--10--10--8h10--10--8h10--10p8h10-----------------------|

 

(4x)

G |-------------------------------8-8-8-8--10-10-10-10-|

D |--10-10-10-10-10-10-10-10-10---8-8-8-8--10-10-10-10-|

A |--10-10-10-10-10-10-10-10-10---6-6-6-6—-8--8--8--8--|

D |--10-10-10-10-10-10-10-10-10------------------------|

 

Intro

Verse 1

Cut 1

Verse 1

Cut 2

Verse 2

Cut 3

Verse 2

Cut 4

Bridge

 

H: Hammer on

P: pull off

/: slide

pm: palm muted





Comments


Popular Cabezones tabs & chords
Lunes Chords
Mi Pequea Infinidad Chords
Pasajero En Extincion Chords
Abismo Tabs
Despegar Tabs
Globo Tabs
Globo 1 Tabs
Sueles Dejarme (Solo) Tabs
Mi Pequea Infinidad Ukulele
Pasajero En Extincion Ukulele


Song lyrics



↑ Back to top | Tablatures and chords are parodies/interpretations of the original songs. You may use it for private study, scholarship, research or language learning purposes only
© 2014 AZChords.com Contact us | Privacy policy | DMCA | Add/correct tabs | Request tabs | Top 50 tabs