>
 >
Despegar

Despegar Guitar Tabs

Cabezones - Despegar chords, tabs, tablatures, lyrics

Guitar lessons | Add/correct | Request | Top 50 tabs Artists:  A B C D E F G H I J K L M N O P Q R S T U V W X Y Z 0-9

Despegar Guitar Tabs – Cabezones

CD, Sheet music, Poster

Do you like Despegar? Share with your friends now
Tabs
Tunning :   C G C F A D 


Intro :   [ riff A - Bx3 - A ]


A			            B		 
|----------------------------------|----------0-----------0----------0---------|
|----------------------------------|----------5-----------5----------5---------|
|----------------------------------|-------------------------------------------|
|-0--2--2-2---0--2--2-2-----0--2-2-|--0--2--2-----0--2-2------0--2-2-----------|
|-0--2--2-2---0--2--2-2-----0--2-2-|--0--2--2-----0--2-2------0--2-2-----------|
|-0--2--2-2---0--2--2-2-----0--2-2-|--0--2--2-----0--2-2------0--2-2-----------|




	"Sintiendo melancolia..."                                                                              
                                          
1st y 3rd times
|-------|-------------------------------|--------------------------------|
|-------|-------------------------------|--------------------------------|
|-------|-------------------------------|--------------------------------|
|-------|--3-3-3---3---3-3---3---3-3--3-|-2-2-2---2---2-2---2---2-2---2--|
|-3/1p0-|--3-3-3---3---3-3---3---3-3--3-|-2-2-2---2---2-2---2---2-2---2--|
|-------|--3-3-3---3---3-3---3---3-3--3-|-2-2-2---2---2-2---2---2-2---2--|
          pm ----->                                                           

 
2nd time                  4th time
|-----------------------|----------------------------|
|-----------------------|----------------------------|
|-----------------------|----------------------------|
|-2-2---2-----2-2--2----|--5-5-5---5---5--5---5-5----|
|-2-2---2-----2-2--2----|--5-5-5---5---5--5---5-5----|
|-2-2---2-----2-2--2----|--5-5-5---5---5--5---5-5----|


 chorus                                                                             
  
x 2
|-----------------------------------------------|
|-----------------------------------------------|
|-----------------------------------------5-----|
|-3--5--5-5---0-3--5-0---3--5---5--4--3---5--3--|
|-3--5--5-5---0-3--5-0---3--5---5--4--3---3--3--|
|-3--5--5-5---0-3--5-0---3--5---5--4--3------3--|
                                                                              


  
x 2
|----------0-----------0----------0---------|
|----------5-----------5----------5---------|
|-------------------------------------------|
|--0--2--2-----0--2-2------0--2-2-----------|
|--0--2--2-----0--2-2------0--2-2-----------|
|--0--2--2-----0--2-2------0--2-2-----------|




 "El desierto..."                                                                              
                                          
1st y 3rd times
|-------------------------------|--------------------------------|
|-------------------------------|--------------------------------|
|-------------------------------|--------------------------------|
|--3-3-3---3---3-3---3---3-3--3-|-2-2-2---2---2-2---2---2-2---2--|
|--3-3-3---3---3-3---3---3-3--3-|-2-2-2---2---2-2---2---2-2---2--|
|--3-3-3---3---3-3---3---3-3--3-|-2-2-2---2---2-2---2---2-2---2--|
   pm ----->                                                           

 
2nd time                  4th vez
|-----------------------|----------------------------|
|-----------------------|----------------------------|
|-----------------------|----------------------------|
|-2-2---2-----2-2--2----|--5-5-5---5---5--5---5-5----|
|-2-2---2-----2-2--2----|--5-5-5---5---5--5---5-5----|
|-2-2---2-----2-2--2----|--5-5-5---5---5--5---5-5----|




 Chorus
                                                                             

 
" Abro mis alas..."
  
|-----------------------------------------------|
|-----------------------------------------------|
|-----------------------------------------5-----|
|-3--5--5-5---0-3--5-0---3--5---5--4--3---5--3--|
|-3--5--5-5---0-3--5-0---3--5---5--4--3---3--3--|
|-3--5--5-5---0-3--5-0---3--5---5--4--3------3--|



               1st 2nd y 3rd times              4th time   

|-------------|------------------------|--------------------------|
|-------------|------------------------|--------------------------|
|-------------|----------------------5-|--------------------------|
|-8--7-7--5---|0-3--0-3-0--5---3--5--5-|-0-3--0-3-0--5---0-3--5---|
|-8--7-7--5---|0-3--0-3-0--5---3--5--3-|-0-3--0-3-0--5---0-3--5---|
|-8--7-7--5---|0-3--0-3-0--5---3--5----|-0-3--0-3-0--5---0-3--5---|



 "llantos aņejos..."

 x 4
|--------------------------|
|--------6------------5----|
|------5---5--------4---4--|
|---3------------2---------|
|--------------------------|
|-3------------2-----------|
                                                                              


Then repeat with variations





Comments


Popular Cabezones tabs & chords
Mi Pequea Infinidad Chords
Pasajero En Extincion Chords
Pasajero En Extincion 1 Chords
Abismo Tabs
Frio Tabs
Globo Tabs
Hombre Paranoico Tabs
Sueles Dejarme (Solo) Tabs
Lunes Ukulele
Mi Pequea Infinidad Ukulele


Song lyrics



↑ Back to top | Tablatures and chords are parodies/interpretations of the original songs. You may use it for private study, scholarship, research or language learning purposes only
© 2014 AZChords.com Contact us | Privacy policy | DMCA | Add/correct tabs | Request tabs | Top 50 tabs