» » »

Bz, Home Tabs (ver.1)

Artists:  A B C D E F G H I J K L M N O P Q R S T U V W X Y Z # 

Home Tabs (ver.1)

Bz Tabs
 Rating:
4.3/5 (6 votes)
Home lessons Tabs too difficult? Try these video lessons and learn fast
                (Intro)
B'z - Home B'z The Best "ULTRA Treasure" (2008)

Tuning: Standard

Key:
b = bend
h = hammer on
p = pull off
/ = slide
[ ] = harmonic
v = vibrato

Acoustic Intro

E---------0------------------------------------------------------------|
B---------0-3h5p3------------------------------------------------------|
G-----------------2h3p2p0----------------------------0-----------------|
D-------------------------4h5p4p0-2h4p2p0-2----------------4-----2-----|
A----5b-7----------------------------------------5/7---7/5---5/3---3/5-|
e-0-----------------------------------------3b-0-----------------------|

E--------------------------------------------------------------------0----|
B-------------------------------[5]-[7]------------------------------0----|
G-0---------0---------------[5]---------[7]-----[12]------------11--------|
D---4-----------0--------[5]----------------[7]-------------7/9----9---12-|
A-----0-2-3---2--------0--------------------------------5/7---------------|
e-----------------3/5---------------------------------0-------------------|

Electric Intro (Played After Acoustic Intro)

E---------------------------------------------------------------------------|
B---------------------------------------------------------------------------|
G---------------12--12-14-14b-12---------------7-7-9-7-7-7/--------------12-|
D-14-12-14-12-14-----------------14--9-7-9-7-9-----9-------14p12h14p12h14---|
A---------------------------------------------------------------------------|
e---------------------------------------------------------------------------|

E------------------------------------------|
B-----------12h15p12-----------------------|
G-12-14--14----------14-12-----------7-9/0-|
D--------------------------9-7-9-7-9---9/0-|
A------------------------------------------|
e------------------------------------------|

Tab Request...

Enjoy!
            
Submit corrections

comments powered by Disqus
↑ Back to top | Bz Tabs for Home. Lyrics for acoustic guitar and electric guitar. Tablatures and chords are parodies/interpretations of the original songs. You may use it for private study, scholarship, research or language learning purposes only