» » »

Time's Up Bass tabs (ver.1)

Artists:  A B C D E F G H I J K L M N O P Q R S T U V W X Y Z # 

Time's Up Bass tabs (ver.1)

Buzzcocks
Rating:
0/5 (0 votes)

Hard to play? Try these video lessons and learn fast.
                Verse 
G|----------------------------------| 
D|----------------------------------| 
A|----------------------------------| 
E|--5-5-5-5-4-4-4-4-3-3-3-3-4-4-4-4-| 

G|-----------------------------------------------------------------| 
D|-----------------------------------------------------------------| 
A|-5-5-5-5-5-5-5-5-3-3-3-3-3-3-3-3---------------------------------| 
E|--------------------------------5-5-5-5-5-5-5-5-3-3-3-33-3-3-3---| 

G|-------------------------------------| 
D|-------------------------------------| 
A|-------------------------------------| 
E|-0-0-0-0-0-0-0-0-0-0-0-0-0-0-3-3-3-3-| 

Chorus 
G|-----------------------------------| 
D|-----------------------------------| 
A|-----------------------------------| 
E|-5-5-5-5-3-3-3-3-1-1-1-1-3-3-3-3---|
            
Hard to play? Try these video lessons and learn fast. | Correct




comments powered by Disqus
↑ Back to top | Tablatures and chords are parodies/interpretations of the original songs. You may use it for private study, scholarship, research or language learning purposes only