» » »

Sixteen Tabs (ver.1)

Artists:  A B C D E F G H I J K L M N O P Q R S T U V W X Y Z # 

Sixteen Tabs (ver.1)

Buzzcocks
Rating:
0/5 (0 votes)

Hard to play? Try these video lessons and learn fast.
                
Throughout the entire song, guitar 1 is strumming the chords C# and C extremely quickly.

Around 0:51, there is another guitar part comes in which goes like this

e|---------------------------------------------------------------------------|
B|---------------------------------------------------------------------------|
G|---------------------------------------------------------------------------|
D|---------------------------------------------------------------------------|
A|---------------------------------------------------------------------------|
E|-4------6------4------3--4--3--4--3--4--6--4--6--8------8--6--4--3----4--1-|

e|---------------------------------------------------------------------------|
B|---------------------------------------------------------------------------|
G|---------------------------------------------------------------------------|
D|---------------------------------------------------------------------------|
A|---------------------------------------------------------------------------|
E|-3--1--3--4--3--4--6--4--6--8----------------------------------------------| 

After that, the guitar plays something like this, with an echo effect

e|-----------------4---------------------------------------------------------|
B|-------------------2-------------------------------------------------------|
G|-0--1----0--1--------------------------------------------------------------|
D|---------------------------------------------------------------------------|
A|---------------------------------------------------------------------------|
E|---------------------------------------------------------------------------|

I can't tab out the middle 8, but i wonder if someone could pm any ideas they have, cheers, that's it.
            
Hard to play? Try these video lessons and learn fast. | Correct




comments powered by Disqus
↑ Back to top | Tablatures and chords are parodies/interpretations of the original songs. You may use it for private study, scholarship, research or language learning purposes only