» » »

Buzzcocks, Noise Annoys Tabs (ver.1)

Artists:  A B C D E F G H I J K L M N O P Q R S T U V W X Y Z # 

Noise Annoys Tabs (ver.1)

Buzzcocks Tabs
 Rating:
4/5 (4 votes)
Noise Annoys lessons Tabs too difficult? Try these video lessons and learn fast
                Intro

Guitar 1
e|------------------|
B|------------------|
G|------------------|X4
D|--444----444------|
A|--222-4--222-4----|
E|------2------2----|
 ......PM............

Verse

Guitar 1
e|-----------------------------------------------------------------------|
B|-----------------------------------------------------------------------|
G|--------4~~------------------4~~--------------------4-------4--------4-|
D|--2--4-----------------2--4-------------------2--4----2--4-----2--4----|X2
A|-----------------------------------------------------------------------|
E|-----------------------------------------------------------------------|

Guitar 2
e|--------77777777777--------------7777777777----------------------------|
B|--------77777777777--------------7777777777----------------------------|
G|-----------------------------------------------------------------------|X2
D|-----------------------------------------------------------------------|
A|-----------------------------------------------------------------------|
E|-----------------------------------------------------------------------|

Verse 2

Guitar 1
e|---------------------------------------------------|
B|---------------------------------------------------|
G|---------4---------4---------4--------4---4---3~---|
D|---2--4-----2---4-----2---4-----2--4---------------|
A|---------------------------------------------------|
E|---------------------------------------------------|
   3rd Time

Solo

Guitar 2
e|-----13r12r9--13r12r9 13r12r9r---13r12r9--8--8-8---|
B|---------------------------------------------------|
G|---------------------------------------------------|X2
D|---------------------------------------------------|
A|---------------------------------------------------|
E|---------------------------------------------------|
  on this part you should probably tap

Then the bass plays, and you just restart from the begining.



Intro   X4
Verse   X2
Verse 2 X1
Solo    X2
Intro   X2
Verse   X2
Verse 2 X1
Solo    X2
Intro   X2
Verse   X2

Thats it. I think thats about right. I dont have the first prat of the song though.
            
Submit corrections

comments powered by Disqus
↑ Back to top | Buzzcocks Tabs for Noise Annoys. Lyrics for acoustic guitar and electric guitar. Tablatures and chords are parodies/interpretations of the original songs. You may use it for private study, scholarship, research or language learning purposes only