» » »

Buzzcocks, Ever Fall In Love Tabs (ver.1)

Artists:  A B C D E F G H I J K L M N O P Q R S T U V W X Y Z # 

Ever Fall In Love Tabs (ver.1)

Buzzcocks Tabs
 Rating:
4/5 (4 votes)
Ever Fall In Love lessons Tabs too difficult? Try these video lessons and learn fast
                -------------------------------------------------------------------------------
                             Buzzcocks-Ever fall in love
---------------------------------------------------------------------------


This is my first tab i think its about 90% right.



Tuning:EADGBe

Intro/Verse

e|4-4-4-4-4-4-4-4-4-4-4-4----------4-4-4-4-4-4-4-4-4-4-4-4------------------
B|5-5-5-5-5-5-5-5-5-5-5-5--4-4--x--5-5-5-5-5-5-5-5-5-5-5-5--4-4-4-----------
G|6-6-6-6-6-6-6-6-6-6-6-6--4-4--x--6-6-6-6-6-6-6-6-6-6-6-6--4-4-4-----------
D|6-6-6-6-6-6-6-6-6-6-6-6--4-4--x--6-6-6-6-6-6-6-6-6-6-6-6--4-4-4-----------
A|4-4-4-4-4-4-4-4-4-4-4-4--2-2--x--4-4-4-4-4-4-4-4-4-4-4-4--2-2-2-----------
E|--------------------------------------------------------------------------

e|-------------0------------0--0---------------------------------2---0--0---
B|-0----2--0---0-------2----0--0-----------2--0-------0--------------0--0---
G|---1--------------1-------1-------1------------------------1-------1------
D|-------------------------------------2------------------------------------
A|--------------------------------------------------------------------------
E|--------------------------------------------------------------------------

Chorus

e|-4-4-4-4-4--------------------4-4-4-4-4-----------------------------------
B|-5-5-5-5-5--4-4-4--4-4-4--4---5-5-5-5-5---4-4--4-4-4---4-4----------------
G|-6-6-6-6-6--4-4-4--4-4-4--4---6-6-6-6-6---4-4--4-4-4---4-4----------------
D|-6-6-6-6-6--4-4-4--4-4-4--4---6-6-6-6-6---4-4--4-4-4---4-4----------------
A|-4-4-4-4-4--2-2-2--2-2-2--2---4-4-4-4-4---2-2--2-2-2---2-2----------------
E|--------------------------------------------------------------------------

 
e|------------------5-5-5---5-5-5----7---------7----x---7----7--------7-----
B|-7-7-7-7---7-7----5-5-5---5-5-5----7----9----7----x---7----7---9----7-x-x-
G|-7-7-7-7---7-7----6-6-6---6-6-6----8----9----8----x---8----8---9----8-x-x-
D|-7-7-7-7---7-7----7-7-7---7-7-7----9----9----9----x---9----9---9----9-x-x-
A|-5-5-5-5---5-5----7-7-7---7-7-7----9----7----9----x---9----9---7----9-x-x-
E|------------------5-5-5---5-5-5----7---------7--------7----7--------7-----

MIddle bit

PM all the way through
e|--------------------------------------------------------------------------
B|--------------------------------------------------------------------------
G|--------------------------------------------------------------------------
D|-2-2-2-2-2-2-2-2-2-2-2-2-2-2-2-2-2-2-2-2-2-2-2-2-2-2-2-2-2-2-2-2----------
A|-2-2-2-2-2-2-2-2-2-2-2-2-2-2-2-2-2-2-2-2-2-2-2-2-2-2-2-2-2-2-2-2----------
E|-0-0-0-0-0-0-0-0-0-0-0-0-0-0-0-0-0-0-0-0-0-0-0-0-0-0-0-0-0-0-0-0----------

e|-------------0------------0--0---------------------------------2---0--0---
B|-0----2--0---0-------2----0--0-----------2--0-------0--------------0--0---
G|---1--------------1-------1-------1------------------------1-------1------
D|-------------------------------------2------------------------------------
A|--------------------------------------------------------------------------
E|--------------------------------------------------------------------------


e|-------------0------------0--0---------------------------------2---0------
B|-0----2--0---0-------2----0--0-----------2--0-------0----------------0----
G|---1--------------1-------1-------1------------------------1--------------
D|-------------------------------------2------------------------------------
A|--------------------------------------------------------------------------
E|--------------------------------------------------------------------------

Outro

e|-5--------------5----------5-----------5----------------------------------
B|-5------7-------5-----x----5-----5-----5-----x--x-------------------------
G|-6------7-------6-----x----6-----5-----6-----x--x-------------------------
D|-7------7-------7-----x----7-----5-----7-----x--x-------------------------
A|-7------5-------7-----x----7-----7-----7-----x--x-------------------------
E|-5--------------5----------5-----------5----------------------------------

e|--------------------------------------------------------------------------
B|--------------------------------------------------------------------------
G|--------------------------------------------------------------------------
D|-5-5-5-5-5-5-5--------9-9-9-9-9-9-9---9----9-----2------------------------
A|-5-5-5-5-5-5-5--------9-9-9-9-9-9-9---9----9-----2------------------------
E|-3-3-3-3-3-3-3--------7-7-7-7-7-7-7---7----7-----0------------------------
            
Submit corrections

comments powered by Disqus
↑ Back to top | Buzzcocks Tabs for Ever Fall In Love. Lyrics for acoustic guitar and electric guitar. Tablatures and chords are parodies/interpretations of the original songs. You may use it for private study, scholarship, research or language learning purposes only