» » »

Boredom Bass tabs (ver.1)

Artists:  A B C D E F G H I J K L M N O P Q R S T U V W X Y Z # 

Boredom Bass tabs (ver.1)

Buzzcocks
Rating:
5/5 (1 vote)

Hard to play? Try these video lessons and learn fast.
                Intro

G---------------------------------------|
D---------------------------------------|
A---------------------------------------|
E-0-0-0--3--5-5-5-5-5--3--7-7-7-7-7-7-7-|

Then
Pre-Chorus
"You know me i'm acting dumb....You know the scene, very humdrum"
G------------------------------------|
D------------------------------------|
A------------------------------------|
E---8-8-8-8-8-8-8-8--7-7-7-7-7-7-7-7-|


Then
Chorus
"Booooooredom Boooooooooreeeedddooom....."
G--------------------------------------------------------------|
D------------8-8--10-10------------6-6--8-8--------------------|
A-8-8--11-11------------6-6--9-9-------------------------------|
E--------------------------------------------6-6-6-6-6-6-6-6-6-|

Structure:

Verse x3
Pre-Chorus
Chorus
Verse x3
Pre-Chorus
Chorus
Verse x3
Pre-Chorus
Chorus
Verse x2
Pre-Chorus
Chorus
Verse x2
Pre-Chorus
Chorus
Verse x2
Pre-Chorus
Chorus
Verse x2
Pre-Chorus
Chorus
            
Hard to play? Try these video lessons and learn fast. | Correct




comments powered by Disqus
↑ Back to top | Tablatures and chords are parodies/interpretations of the original songs. You may use it for private study, scholarship, research or language learning purposes only