» » »

Autonomy Tabs (ver.2)

Artists:  A B C D E F G H I J K L M N O P Q R S T U V W X Y Z # 

Autonomy Tabs (ver.2)

Buzzcocks
Rating:
4/5 (1 vote)

Hard to play? Try these video lessons and learn fast.
                Instrument: Guitar
Tuning: Standard (E A D G B E)


  intro
E|1-------------1-||
B|1-------------1-||
G|2-------------2-||
D|3-------------3-||
A|3-------------3-||
E|1-------------1-||
                x8

  verse
 
E|1--13--11--10-8-|6-----1---------|1--13--11--10-8-|6------1--------||
B|1--13--11--10-8-|6-----1---------|1--13--11--10-8-|6------1--------||
G|2--14--12--11-9-|7-----2---------|2--14--12--11-9-|7------2--------||
D|3--15--13--12-10|8-----3---------|3--15--13--12-10|8------3--------||
A|3--15--13--12-10|8-----3---------|3--15--13--12-10|8------3--------||
E|1--13--11--10-8-|6-----1---------|1--13--11--10-8-|6------1--------||
  F  F   D#  D  C  A#    F          F  F   D#  D  C  A#     F
E|1---------------|6-----1---------|1---------------|6------1--------||
B|1---------------|6-----1---------|1---------------|6------1--------||
G|2---------------|7-----2---------|2---------------|7------2--------||
D|3---------------|8-----3---------|3---------------|8------3--------||
A|3---------------|8-----3---------|3---------------|8------3--------||
E|1---------------|6-----1---------|1---------------|6------1--------||
  F                A#    F          F                A#     F

E|1--13--11--10-8-|6-----1---------|1--13--11--10-8-|6------1--------||
B|1--13--11--10-8-|6-----1---------|1--13--11--10-8-|6------1--------||
G|2--14--12--11-9-|7-----2---------|2--14--12--11-9-|7------2--------||
D|3--15--13--12-10|8-----3---------|3--15--13--12-10|8------3--------||
A|3--15--13--12-10|8-----3---------|3--15--13--12-10|8------3--------||
E|1--13--11--10-8-|6-----1---------|1--13--11--10-8-|6------1--------||
  F  F   D#  D  C  A#    F          F  F   D#  D  C  A#     F

bridge
E|1---------------|----------------||
B|1---------------|----6-4---------||
G|2---------------|--------5-3-----||
D|3---------------|--3---------6---||
A|3---------------|----------------||
E|1---------------|----------------||
  F

chorus

E|----------------|----------------||
B|----------------|----------------||
G|---------6------|---------6------||
D|4---4-4-----4---|4-4-4-4----4----||
A|----------------|----------------||
E|----------------|----------------||
  F#
E|----------------|----------------||
B|----------------|----------------||
G|----------8-----|---------8------||
D|6---6-6-----6---|6-6-6-6-----6---||
A|----------------|----------------||
E|----------------|----------------||
  G#
E|----------------|----------------||
B|----------------|----------------||
G|----------10----|---------10-----||
D|8---8-8-----8---|8-8-8-8-----8---||
A|----------------|----------------||
E|----------------|----------------||
  A#                            x2

solo
E|----------------|----------------|----------------|----------------||
B|----------------|----------------|----------------|----------------||
G|----------------|----------------|----------------|----------------||
D|3-4---6-----6-6-|4-------3-4-3---|3---------------|----------------||
A|----------------|--------------6-|--6-4-6-4-3-4-3-|----4-6-----4---||
E|----------------|----------------|----------------|----------------||
                   F#                                G#
E|----------------|----------------|----------------|----------------||
B|----------------|----------------|----------------|----------------||
G|----------------|----------------|----------------|----------------||
D|----------------|------3---------|------3---------|------3-----5---||
A|3---4-6-----6---|5---6-------6---|5---6-------6---|5---6-----------||
E|----------------|----------------|----------------|----------------||
                   A#                           
E|----------------|----------------|----------------|----------------||
B|----------------|----------------|--4---6-----6---|6---4-----4-----||
G|----3-5-----5---|6------6----5-6-|----------------|--------6---6-5-||
D|6---------------|----------------|----------------|----------------||
A|----------------|----------------|----------------|----------------||
E|----------------|----------------|----------------|----------------||
                   F#                                G#
E|----------------|----------------|----------------|----------------||
B|----------------|----------------|----------------|----------------||
G|6-5-3-5-3-------|--------10------|--------10------|--------10------||
D|------------6---|8---8-8-----8---|8-8-8-8-----8---|8---8-8-----8---||
A|----------------|----------------|----------------|----------------||
E|----------------|----------------|----------------|----------------||
                   A#
E|----------------||
B|----------------||
G|--------10------||
D|8-8-8-8-----8---||
A|----------------||
E|----------------||

intro
verse 1
verse 2
bridge
chorus
verse 3
chorus x2
solo
chorus x3
end (A#)
            
Hard to play? Try these video lessons and learn fast. | Correct




comments powered by Disqus
↑ Back to top | Tablatures and chords are parodies/interpretations of the original songs. You may use it for private study, scholarship, research or language learning purposes only