» » »

Buzzcocks, Autonomy Bass tabs (ver.1)

Artists:  A B C D E F G H I J K L M N O P Q R S T U V W X Y Z # 

Autonomy Bass tabs (ver.1)

Buzzcocks Tabs
Rating:
0/5 (0 votes)
Autonomy lessons Tabs too difficult? Try these video lessons and learn fast
                Intro

G|--------------------|
D|--------------------|  X a lot
A|-4--------4-------4-|
E|---2222222--222222--|

PreVerse

G|------------------------|
D|------------------------|
A|-----------3-5-------35-|
E|22222222222----222222---|

Verse

G|----------------------|
D|----------------------|
A|------3-4-2-------342-|
E|22222-------22222-----|

PreChorus (also PreVerse from now on)

G|------------------|
D|------------------|
A|--------4-------4-|
E|-2222222--222222--|

Chorus

G|----------------------------------------------|
D|----------------------------------------------|
A|----5------5--------7-------7------9--------9-|   7's and 9's last a bit
E|3333--33333---55555---55555---7777----77777---|    longer

Outro/Guitar solo

first riff
G|----------------------------------------------|
D|----5------5--------7-------7------9--------9-|
A|3333--33333---55555---55555---7777----77777---|
E|----------------------------------------------|

Second Riff

G|----5------5--------7-------7------9--------9-|
D|3333--33333---55555---55555---7777----77777---|
A|----------------------------------------------|
E|----------------------------------------------|

Play The First Riff When It Slows Down

G|----------------------------------------------|
D|------777777777777----------------------------|
A|-----------------------5~~~~~~~---------------|
E|----------------------------------------------|

Hold The 5 till it all fades out

there we go autonomy for you
            
Submit corrections

comments powered by Disqus
↑ Back to top | Buzzcocks Bass for Autonomy. Lyrics for acoustic guitar and electric guitar. Tablatures and chords are parodies/interpretations of the original songs. You may use it for private study, scholarship, research or language learning purposes only