» » »

Royal Jelly Tabs (ver.2)

Artists:  A B C D E F G H I J K L M N O P Q R S T U V W X Y Z # 

Royal Jelly Tabs (ver.2)

Butterfingers
Rating:
0/5 (0 votes)

Tabs too difficult? Try these video lessons and learn fast.
                 --------------------------------|-------------------------------------------|
 --------------------------------|-------------------------------------------|
 -------9-8-6-8-9-8-6---6-8-6----|-----9-8-6-8-9-8-6---6-8-6-----------------|
 --------------------------------|-------------------------------------------|
 --------------------------------|-------------------------------------------|
 -------0-0-0-0-0-0-0---0-0-0----|-----7-7-7-7-7-7-7---7-7-7-----------------|


 --------------------------------|-------------------------------------------|
 --------------------------------|-------------------------------------------|
 --------------------------------|----7--------------------------------------|
 --------------------------------|----7-----11-----5-------------------------|
 -------7-8-7--5-7--3-5--3-0-----|--0-5--9------3----------------------------|
 -------7-8-7--5-7--3-5--3-0-----|--0----9------3----------------------------|


 --------------------------------|-------------------------------------------|
 --------------------------------|-------------------------------------------|
 --------------------------------|----7--------------------------------------|
 --------------------------------|----7-----11-----5-------------------------|
 -------7-8-7--5-7--3-5--3-0-----|--0-5--9------3----------------------------|
 -------7-8-7--5-7--3-5--3-0-----|--0----9------3----------------------------|

repeat 3x


sorry,this tab not completed yet.still in progress
            
Tabs too difficult? Try these video lessons and learn fast.




comments powered by Disqus
↑ Back to top | Tablatures and chords are parodies/interpretations of the original songs. You may use it for private study, scholarship, research or language learning purposes only