» » »

Nicc O Tynne Tabs (ver.1)

Artists:  A B C D E F G H I J K L M N O P Q R S T U V W X Y Z # 

Nicc O Tynne Tabs (ver.1)

Butterfingers
Rating:
0/5 (0 votes)

Hard to play? Try these video lessons and learn fast.
                Any comment, suggestion or question, just e-mail me ok!!


Intro
2x
E--------------------------------------------------
B--------------------------------------------------
G--------------------------------------------------
D------------------------------------9--9----------
A----4--5--x-x-x--5--5--4--2--x-x-x--7--7----------
E--0-2--3--x-x-x--3--3--2--0--x-x-x----------------

2x
E--------------------------------------------------
B--------------------------------------------------
G--------------------------------------------------
D------------------------9--9----------------------
A----4--5--5--5--4--2----7--7----------------------
E--0-2--3--3--3--2--0------------------------------

Verse 4x
E--------------------------------------------------
B--------------------------------------------------
G--------------------------------------------------
D------------------------9--9----------------------
A----4--5--5--5--4--2----7--7----------------------
E--0-2--3--3--3--2--0------------------------------

Bridge
2x
      Waiting.....
E--------------------------------------------------
B--------------------------------------------------
G--------------------------------------------------
D--7-7-7--9-9-9------------------------------------
A--5-5-5--7-7-7----5-5-5---4/-5---4/-5-------------
E------------------3-3-3-0-2/-3-0-2/-3-0-----------

3x
Don't *** me.....ohhhhh
E--------------------------------------------------
B--------------------------------------------------
G--------------------------------------------------
D--------------------------------------------------
A--4-4-4--5-5-5------------------------------------
E--2-2-2--3-3-3------------------------------------

Chorus 9x

     B     G       D     A
E--------------------------------------------------
B--------------------------------------------------
G--------------------------------------------------
D--4-4-4---------7-7-7-----------------------------
A--2-2-2--5-5-5--5-5-5--7-7-7----------------------
E---------3-3-3---------5-5-5----------------------

Then repeat intro,verse,bridge and chorus as well.

Here comes the solos!!! (Rhythm plays as chorus)
E--------------------------------------------------
B--10b-10b-10b-10b-8-10-7h8-7h8-7h8-7h8-7h8-7h8----
G--------------------------------------------------
D--------------------------------------------------
A--------------------------------------------------
E--------------------------------------------------

E------------10-10---------------------------------
B--7h8-7h8-7------------------------------7-7------
G-------------------7-9-7-6-7-6-9-7-6-7-6-----9-7--
D--------------------------------------------------
A--------------------------------------------------
E--------------------------------------------------

E--------------------------------------------------
B--------------7-7-8-7-7-8-7-7-8-10-8-7-8-7--------
G--6-9-9-7-6-7-------------------------------------
D--------------------------------------------------
A--------------------------------------------------
E--------------------------------------------------

E--------------------------------------------------
B--7-8-7-7-8-7-7-8-10-8-7-8-7----------------------
G--------------------------------------------------
D--------------------------------------------------
A--------------------------------------------------
E--------------------------------------------------

E--------------------------------------------------
B--7-8-7-7-8-7-7-8-10-8-7-8-7----------------------
G--------------------------------------------------
D--------------------------------------------------
A--------------------------------------------------
E--------------------------------------------------

E--------------------------------------------------
B--7-8-7-7-8-7h8-7-5h7-5-3h5-3-*2h3-2-0------------
G--------------------------------------------------
D--------------------------------------------------
A--------------------------------------------------
E--------------------------------------------------

*Rhythm starts to play intro again at this part!!
Then repeat verse,bridge and chorus one more time.

2nd solo(Rhythm plays as chorus)
E--------------------------------------------------
B--7-7-8-7-7-8-7-7-8-10-8-7-8-7--------------------
G--------------------------------------------------
D--------------------------------------------------
A--------------------------------------------------
E--------------------------------------------------

E--------------------------------------------------
B--7-8-7-7-8-7-7-8-10-8-7-8-7----------------------
G--------------------------------------------------
D--------------------------------------------------
A--------------------------------------------------
E--------------------------------------------------

E--------------------------------------------------
B--7-8-7-7-8-7-7-8-10-8-7-8-7----------------------
G--------------------------------------------------
D--------------------------------------------------
A--------------------------------------------------
E--------------------------------------------------

E--------------------------------------------------
B--7-8-7-7-8-7-7-8-10-8-7-8-7----------------------
G--------------------------------------------------
D--------------------------------------------------
A--------------------------------------------------
E--------------------------------------------------

End
            
Hard to play? Try these video lessons and learn fast. | Correct




comments powered by Disqus
↑ Back to top | Tablatures and chords are parodies/interpretations of the original songs. You may use it for private study, scholarship, research or language learning purposes only