>
 >
Kabus Ribut 1

Kabus Ribut 1 Guitar Tabs

Butterfingers - Kabus Ribut 1 chords, tabs, tablatures, lyrics

Guitar lessons | Add/correct | Request | Top 50 tabs Artists:  A B C D E F G H I J K L M N O P Q R S T U V W X Y Z 0-9

Kabus Ribut 1 Guitar Tabs – Butterfingers

CD, Sheet music, Poster

Do you like Kabus Ribut 1? Share with your friends now
TabsTabs v2
Kabus Ribut by Butterfingers

This is something I figured out by ear.. so if it doesn't sound right to you guys, I'm sorry.

Intro

e|-2~-----------------------------------------------2~-|
B|-3~-3-----2-------3-2-2---3-2----3--3--0--2--2--2-3~-|
G|-2~--2-----2-----4-----4-4----4---2--2-----2--2---4~-|
D|-0~---0-----4---4-------4-------0--0--0-----4--4--4~-|
A|-0~----0-4---4-2-------------------------4--------2~-|
E|-----------------------------------------------------|
                                              let ring the last note

   D	    F#m	    Bm		      D        F#m	Bm
e|------------------------------------------------------2~-|
B|--3--3--3--2--2--2----3-2-2---3-2----3--3--0--2--2--2-3~-|
G|---2--2-----2--2-----4-----4-4----4---2--2-----2--2---4~-|
D|-0--0--0-----4--4---4-------4-------0--0--0-----4--4--4~-|
A|----------4--------2-------------------------4--------2~-|
E|---------------------------------------------------------|x2 played with verse


To make it easier to play, I just take chord forms and just pick the strings while in 
form. The chords being D, F#m, Bm

Verse
D      F#m	  Bm
Disini menglamun, Hari mendatang, hari mendatang,
D     F#m	     G
Kiranya ku memeluk hiba

D      F#m	Bm
Itupun beralun, hari mendatang, hari mendatang,
D     F#m	     G
Kiranya ku memeluk hibur

Bridge
    Asus2     Bsus2	      Asus2
Terusan kabus ribut yang melimpah
     Bsus2       Asus2
Yang mengucap tiba
    Bsus2	Asus2
Ku ingin bersamamu
	Bsus2
Sehingga akhirnya

Asus2 and Bsus2 (slighty modified) chords for those who don't already know

   Asus2  Bsus2
e|-------------|
B|-------------|
G|---2-----4---|
D|---2-----4---|
A|---------2---|
E|-------------|

Of course in the chorus has a lot of picking and I never got around to figuring
them out. If anyone's figured them out, please enlighten me.

Chorus
D	     F#m
Kabus, kabus ribut
Bm       A      G
Indah berseri-seri
D	     F#m
Kabus, kabus ribut
Bm	 A	G
Bilakah sampai waktu?

Riff
e|------------------------------------------------------2~-|
B|--3--3--3--2--2--2----3-2-2---3-2----3--3--0--2--2--2-3~-|
G|---2--2-----2--2-----4-----4-4----4---2--2-----2--2---4~-|
D|-0--0--0-----4--4---4-------4-------0--0--0-----4--4--4~-|
A|----------4--------2-------------------------4--------2~-|
E|---------------------------------------------------------|

This riff is played throughout the 2nd verse but with variations starting from *

Disini menglamun
Hari mendatang, hari mendatang
Kiranya ku memeluk hiba

*
Sekalipun beralun awan mendatang, awan mendatang
Kiranya ku memeluk hibur

Kabus, kabus ribut
Indah berseri-seri
Kabus, kabus ribut
Bilakah sampai waktu?

Solo
e|----------------------------------------------------------------|
B|----------------------------------------------------------------|
G|-11~-11-11/12-11~-11-11-11/7~-11-11-11/7~-7/0----9/11-7~-7-7----|
D|----------------------------------------------7-7---------------|
A|----------------------------------------------------------------|
E|----------------------------------------------------------------|

e|----------------------------------------------------------------|
B|-8/10-7~-8-7----------------------------------------------------|
G|-------------9~--7/6/7/6/7/6/7/6/7-7/6/7/6/7/6/7/6/7------------|
D|-----------------------------------------------------7/6/7/6/7/6|
A|----------------------------------------------------------------|
E|----------------------------------------------------------------|

e|----------------------------------------------------------------|
B|-------------------7-8/10-10-12/15~-14-12-10-12-8~-10-7~-8-7----|
G|------------9/11-7-------------------------------------------9~-|
D|/7/6/7~-7-7-----------------------------------------------------|
A|----------------------------------------------------------------|
E|----------------------------------------------------------------|

e|----------------------------------------------------------------|
B|----------------------------------------------------------------|
G|-7/6/7/6/7/6/7-9/7/9/7/9/7/9-11/9/11/9/11/9/11-12-12/11-12-12/14|
D|----------------------------------------------------------------|
A|----------------------------------------------------------------|
E|----------------------------------------------------------------|

This next part plays in the background along with the bridge and into
the first part of the chorus. You'll have to figure out where it ends.

e|-------------------------------------------------------------------------|
B|------------------------------------------------14-15-17-19~-19/17~-17/0-|
G|------------------------------------------14-16--------------------------|
D|-7-7/9-9-9/11-11-11/17-16-14-14~-14-16-17--------------------------------|
A|-------------------------------------------------------------------------|
E|-------------------------------------------------------------------------|

Terusan kabus ribut yang melimpah
Yang mengucap tiba
Ku ingin bersamamu
Sehingga akhirnya

Kabus, kabus ribut
Indah berseri-seri
Kabus, kabus ribut
Bilakah sampai waktu?

*repeat chorus x1

This plays in the background while the final repetition of the chorus is sung.

e|-------------------------------------------------------------------|
B|-------------------------------------------------------------------|
G|-12~-11~-9~-7~-9-9/11~-9~-7~-6~-7-7/9-7~-6~-4~-2/4~2/4~2/4/2/4-6-7-|
D|-------------------------------------------------------------------|
A|-------------------------------------------------------------------|
E|-------------------------------------------------------------------| x2

e|---------------|
B|---------------|
G|-11~~--11/7~~--|
D|---------------|
A|---------------|
E|---------------|

The ending basically consists of playing the D chord with some picking (at least I think 
I'm not too sure how the picking actually goes, but I just mess about with strings 1, 
3 and 4.. sounds OK to me.

Outro
Disini menglamun, datang
Kabus ribut, ribut

This is my first tab, hope you guys like it. I'm not a pro guitarist, thus mistakes are 
If there are any errors, I'd appreciate it if someone could point them out to me. Cheers.





Comments


Popular Butterfingers tabs & chords
Everytime Bass Tabs
The Chemistry 1 Bass Tabs
Maharani 1 Chords
Weird Chords
Figjam Intro Tabs
Me Tabs
Nicc O Tynne Tabs
Nicc Otynne Tabs
Skew Tabs
Wet Blanket Tabs


Song lyrics



↑ Back to top | Tablatures and chords are parodies/interpretations of the original songs. You may use it for private study, scholarship, research or language learning purposes only
© 2014 AZChords.com Contact us | Privacy policy | DMCA | Add/correct tabs | Request tabs | Top 50 tabs