>
 >
Epitome

Epitome Guitar Tabs

Butterfingers - Epitome chords, tabs, tablatures, lyrics

Guitar lessons | Add/correct | Request | Top 50 tabs Artists:  A B C D E F G H I J K L M N O P Q R S T U V W X Y Z 0-9

Epitome Guitar Tabs – Butterfingers

CD, Sheet music, Poster

Do you like Epitome? Share with your friends now
Tabs
Any comment, suggestion or question, just e-mail me ok!!

Drum and Gong intro

   Intro Riff
   Guitar 1
e 
:------------------------------------------------------------------------------|
B 
:--------7-7---------------7~------------7-9-10-10b12-10-9h10p9---7-10-9-9-7---|
G 
:----8-9-----9-8h9p8---8-9-------------9------------------------9------------9~|
D 
:--9-----------------9---------------------------------------------------------|
A 
:------------------------------------------------------------------------------|
E 
:------------------------------------------------------------------------------|
   Guitar 2
e 
:------------------------------------------------------------------------------|
B 
:--------------------------------------------------------------------------7---|
G 
:------------9-8-------------9-8---------------------------------------------9-|
D 
:----------------9---------------9---------------------------------------------|
A 
:------------------------------------------------------------------------------|
E 
:------------------------------------------------------------------------------|
   Listen carefully for timing for Guitar 2


e :------------------------------------------------------------------------|
B :--------7~-----------7--------------------------------------------------|
G :----8-9------------9---8~-8b(9)r8------------7~---------------9~--------|
D :--9---------------------------------------------------------------------|
A :------------------------------------------------------------------------|
E :------------------------------------------------------------------------|
             < .......RYTHM 1.............................................
e :------------------------------------------------------------------------|
B :------------------------------------------------------------------------|
G :--------------------------------------------------------------9-9-9-9---|
D :----------9-9-9-9-9-9-9-9-9-9-9-9-9-9-9-9----7-7-7-7-7-7-7-7--9-9-9-9---|
A :----------9-9-9-9-9-9-9-9-9-9-9-9-9-9-9-9----7-7-7-7-7-7-7-7--7-7-7-7---|
E :----------7-7-7-7-7-7-7-7-7-7-7-7-7-7-7-7----5-5-5-5-5-5-5-5------------|

                        timing...timing.....      let ring
e :----------------------------------------------------------------------|
B :--------7~-----9-9b(10)r9--7------------------------------------------|
G :----8-9-----------------------9-----8-------7~------------------------|
D :--9---------------------------------------------------------9~--------|
A :----------------------------------------------------------------------|
E :----------------------------------------------------------------------|
    ........>
e :----------------------------------------------------------------------|
B :----------------------------------------------------------------------|
G :--9-9-9-9---------------------------------------------------9-9-9-9---|
D :--9-9-9-9-9-9-9-9-9-9-9-9-9-9-9-9-9-9-9-9---7-7-7-7-7-7-7-7-9-9-9-9---|
A :--7-7-7-7-9-9-9-9-9-9-9-9-9-9-9-9-9-9-9-9---7-7-7-7-7-7-7-7-7-7-7-7---|
E :----------7-7-7-7-7-7-7-7-7-7-7-7-7-7-7-7---5-5-5-5-5-5-5-5-----------|



e :----------------------------------------------------------------------|
B :----------------------------------------------------------------------|
G :----------------------------------------------------------------------|
D :----------/7-6-4-5h6p5-4---/7-6-4-5h6p5-4------9~------------9b10--9~-|
A :-------------------------7----------------7---------------------------|
E :----------------*----------------*------------------------------------|

   * between here you can hear this riff by a 3rd guitar(especially when guitar 1
     riff's finish)throughout the whole song at the end/middle of riffs and at the 
     end of a bar.

      e :----------------------------------|
      B :----------------------------------|
      G :---9-8-6--------------------------|
      D :---------9------------------------|
      A :----------------------------------|
      E :----------------------------------|
         clean
e :-----------------------------------------------------------------------|
B :-----------------------------------------------------------------------|
G :--9-9-9-9----------------------------------------------------9-9-9-9---|
D :--9-9-9-9--9-9-9-9-9-9-9-9-9-9-9-9-9-9-9-9---7-7-7-7-7-7-7-7-9-9-9-9---|
A :--7-7-7-7--9-9-9-9-9-9-9-9-9-9-9-9-9-9-9-9---7-7-7-7-7-7-7-7-7-7-7-7---|
E :-----------7-7-7-7-7-7-7-7-7-7-7-7-7-7-7-7---5-5-5-5-5-5-5-5-----------|


e :-----------------------------------------------------------------------|
B :-----------------------------------------------------------------------|
G :-----------------------------------------------------------------------|
D :---------/7-6-4-5h6p5-4------------------------------------------------|
A :------------------------7----------*-----------------------------------|
E :-----------------------------------------------------------------------|
                                       Some riff don't know whether its bass
                                       or guitar

e :-----------------------------------------------------------------------|
B :-----------------------------------------------------------------------|
G :--9-9-9-9--------------------------------------------------------------|
D :--9-9-9-9--9-9-9-9-9-9-9-9-9-9-9-9-9-9-9-9----4-4-4-4-4-4-4-4--7-7-7-7--|
A :--7-7-7-7--9-9-9-9-9-9-9-9-9-9-9-9-9-9-9-9----4-4-4-4-4-4-4-4--7-7-7-7--|
E :-----------7-7-7-7-7-7-7-7-7-7-7-7-7-7-7-7----2-2-2-2-2-2-2-2--5-5-5-5--|



e 
:------------------------------------------------------------------------------|
B 
:--------7-7---------------7~------------7-9-10-10b12-10-9h10p9---7-10-9-9-7---|
G 
:----8-9-----9-8h9p8---8-9-------------9------------------------9------------9~|
D 
:--9-----------------9---------------------------------------------------------|
A 
:------------------------------------------------------------------------------|
E 
:------------------------------------------------------------------------------|

e 
:------------------------------------------------------------------------------|
B 
:--------------------------------------------------------------------------7---|
G 
:------------9-8--------------9-8--------------------------------------------9-|
D 
:--7-------------9----------------9--------------------------------------------|
A 
:--7---------------------------------------------------------------------------|
E 
:--5---------------------------------------------------------------------------|
  Repeat




                         * bend and release many times
e :-------------------------------------------------------------------|
B :--------7~---------------------------7~--------------9~------------|
G :----8-9-----8-9--6----8b9r8b9r8b9----------------------------------|
D :--9----------------------------------------------------------------|
A :-------------------------------------------------------------------|
E :-------------------------------------------------------------------|


e :-------------------------------------------------------------------|
B :-------------------------------------------------------------------|
G :-----------------------------------------------------9-9-9-9-------|
D :----------9-9-9-9-9-9-9-9-9-9-9-9---7-7-7-7-7-7-7-7--9-9-9-9-------|
A :----------9-9-9-9-9-9-9-9-9-9-9-9---7-7-7-7-7-7-7-7--7-7-7-7-------|
E :----------7-7-7-7-7-7-7-7-7-7-7-7---5-5-5-5-5-5-5-5----------------|


                                                 * bend and release many 
times
e 
:-------------------------7------------------------------------------------|
B 
:------------10-9h10p9-7----10-9h10p9--7-(7)-------------------------------|
G 
:----------------------------------------------9b10r9b10r9b10-----8---6----|
D 
:-----------------------------------------------------------------------9--|
A 
:--------------------------------------------------------------------------|
E 
:--------------------------------------------------------------------------|

e 
:--------------------------------------------------------------------------|
B 
:--------------------------------------------------------------------------|
G 
:--9-9-9-9------------------------------------------------------9-9-9-9----|
D 
:--9-9-9-9--9-9-9-9-9-9-9-9-9-9-9-9-9-9-9-9-9--7-7-7-7-7-7-7-7--9-9-9-9----|
A 
:--7-7-7-7--9-9-9-9-9-9-9-9-9-9-9-9-9-9-9-9-9--7-7-7-7-7-7-7-7--7-7-7-7----|
E 
:-----------7-7-7-7-7-7-7-7-7-7-7-7-9-9-9-9-9--5-5-5-5-5-5-5-5-------------|



e :------------------------------------------------------------------------|
B :------------------------------------------------------------------------|
G :------------------------------------------------------------------------|
D :----------/7-6-4-5h6p5-4---/7-6-4-5h6p5-4------9~--------------11~--9---|
A :-------------------------7----------------7-----------------------------|
E :------------------------------------------------------------------------|

e 
:----------------------------------------------------------------------------|
B 
:----------------------------------------------------------------------------|
G 
:--9-9-9-9------------------------------------------------------9-9-9-9------|
D 
:--9-9-9-9--9-9-9-9-9-9-9-9-9-9-9-9-9-9-9-9-9--7-7-7-7-7-7-7-7--9-9-9-9------|
A 
:--7-7-7-7--9-9-9-9-9-9-9-9-9-9-9-9-9-9-9-9-9--7-7-7-7-7-7-7-7--7-7-7-7------|
E 
:-----------7-7-7-7-7-7-7-7-7-7-7-7-9-9-9-9-9--5-5-5-5-5-5-5-5---------------|



e :-----------------------------------------------------------------------|
B :-----------------------------------------------------------------------|
G :-----------------------------------------------------------------------|
D :---------/7-6-4-5h6p5-4------------------------------------------------|
A :------------------------7----------*-----------------------------------|
E :-----------------------------------------------------------------------|
                                       Some riff don't know whether its bass
                                       or guitar

e :------------------------------------------------------------------------|
B :------------------------------------------------------------------------|
G :--9-9-9-9---------------------------------------------------------------|
D :--9-9-9-9--9-9-9-9-9-9-9-9-9-9-9-9-9-9-9-9----4-4-4-4-4-4-4-4--7-7-7-7--|
A :--7-7-7-7--9-9-9-9-9-9-9-9-9-9-9-9-9-9-9-9----4-4-4-4-4-4-4-4--7-7-7-7--|
E :-----------7-7-7-7-7-7-7-7-7-7-7-7-7-7-7-7----2-2-2-2-2-2-2-2--5-5-5-5--|


  * Play intro riff twice

   Both guitar plays ryhtm 1 twice
   Then,
e :----------------------------------------------------------------------|
B :----------------------------------------------------------------------|
G :----------------------------------------------------------------------|
D :----------/7-6-4-5h6p5-4---/7-6-4-5h6p5-4-----------------------------|
A :-------------------------7----------------7---------------------------|
E :----------------*-----------------*-----------------------------------|

e :-----------------------------------------------------------------------|
B :-----------------------------------------------------------------------|
G :--9-9-9-9----------------------------------------------------9-9-9-9---|
D :--9-9-9-9--9-9-9-9-9-9-9-9-9-9-9-9-9-9-9-9---7-7-7-7-7-7-7-7-9-9-9-9---|
A :--7-7-7-7--9-9-9-9-9-9-9-9-9-9-9-9-9-9-9-9---7-7-7-7-7-7-7-7-7-7-7-7---|
E :-----------7-7-7-7-7-7-7-7-7-7-7-7-7-7-7-7---5-5-5-5-5-5-5-5-----------|


e :-----------------------------------------------------------------------|
B :-----------------------------------------------------------------------|
G :-----------------------------------------------------------------------|
D :---------/7-6-4-5h6p5-4------------------------------------------------|
A :------------------------7----------*-----------------------------------|
E :-----------------------------------------------------------------------|
                                       Some riff don't know whether its bass
                                       or guitar

e :------------------------------------------------------------------------|
B :------------------------------------------------------------------------|
G :--9-9-9-9---------------------------------------------------------------|
D :--9-9-9-9--9-9-9-9-9-9-9-9-9-9-9-9-9-9-9-9----4-4-4-4-4-4-4-4--7-7-7-7--|
A :--7-7-7-7--9-9-9-9-9-9-9-9-9-9-9-9-9-9-9-9----4-4-4-4-4-4-4-4--7-7-7-7--|
E :-----------7-7-7-7-7-7-7-7-7-7-7-7-7-7-7-7----2-2-2-2-2-2-2-2--5-5-5-5--|

  * Play intro riff twice
  at the the end guitar 2 plays the riff the 2nd time
   Guitar 3
e :----------------------------------------------------------------|
B :--7-----7~------------------------------------------------------|
G :----9-8---------------------------------------------------------|
D :----------------------------------------------------------------|
A :----------------------------------------------------------------|
E :----------------------------------------------------------------|



  - coninuation of the intro riff played after it.....(solo??)
e :----------------------------------------------------------|
B :--------7~-7-7~--9b11r9-7---7b9r7-(7)---------------------|
G :----8-9-------------------9-----------9-9v~~~~~-----------|
D :--9-------------------------------------------------------|
A :----------------------------------------------------------|
E :----------------------------------------------------------|
   * Guitar 2 plays guitar 1's intro riff part (v=bend & release or tremolo)
e :----------------------------------------------------------|
B :--------7~------------------------------------------------|
G :--9-8-9----8b9rb--6---8b9r8--6----------------------------|
D :--------------------9------------9v~~~~~~~---9------------|
A :----------------------------------------------------------|
E :----------------------------------------------------------|

   Guitar 2 plays it's rythm part....check ryhtm 1.....
e :--7-------------------7-------------------------------------------|
B :----10-9b10r9--7---------10-9b10r9--7-----------9-9-9-9/12--12~~--|
G :------------------9--------------------9--------------------------|
D :------------------------------------------------------------------|
A :------------------------------------------------------------------|
E :------------------------------------------------------------------|

                                                  * hold bend and vibrate it
e :------------------------------------------------------------------|
B :--7b9---7b9---7b9--7b9-7b9-7b9-7b9-7b9-7b9-7b9-7b9~~~~------------|
G :------------------------------------------------------------------|
D :------------------------------------------------------------------|
A :------------------------------------------------------------------|
E :------------------------------------------------------------------|

e :---7~~----7/9----7-9-7~-----7~~----7/9----7-9-7---7~~------------------|
B :-------10-----10----------------10-----10-------------9-9b11r9--7p5-7'-|
G :-----------------------------------------------------------------------|
D :-----------------------------------------------------------------------|
A :-----------------------------------------------------------------------|
E :-----------------------------------------------------------------------|

  Guitar 2 plays this while guitar 1 is still holding that note(')
e :-----------------------------||----------------------------------|
B :-----------------------------||----------------------------------|
G :-----------------------------||----------------------------------|
D :-4-4-4-4-4-4-4-4--7-7-7-7-7--||--9-9-9--play approx.-11 times----|
A :-4-4-4-4-4-4-4-4--7-7-7-7-7--||--9-9-9---------------------------|
E :-2-2-2-2-2-2-2-2--5-5-5-5-5--||--7-7-7---------------------------|
                                  * Both guitars playing...

* The ending - the guitars plays
             the same chord only the violin plays higher..Ok
e :---------------------------------------------------------------------|
B :---------------------------------------------------------------------|
G :----9----9----9-----9-----9-------9--------9--------9----------------|
D :--9-9--9-9--9-9--9--9--9--9---9---9----9---9----9---9---9------------|
A :--9-7--9-7--9-7--9--7--9--7---9---7----9---7----9---7---9-hold-chord-|
E :--7----7----7----7-----7------7--------7--------7-------7------------|





Comments


Popular Butterfingers tabs & chords
Merpati Sejoli Chords
Tentang-Tentang Chords
I Love Work Intro Tabs
Nicc O Tynne Tabs
Skew Tabs
The Chemistry Tabs
Together Tabs
Vio-Pipe Tabs
Vio-Pipe 1 Tabs
Yo Mama Ukulele


Song lyrics



↑ Back to top | Tablatures and chords are parodies/interpretations of the original songs. You may use it for private study, scholarship, research or language learning purposes only
© 2014 AZChords.com Contact us | Privacy policy | DMCA | Add/correct tabs | Request tabs | Top 50 tabs