» » »

Busted, Year 3 Tabs (ver.2)

Artists:  A B C D E F G H I J K L M N O P Q R S T U V W X Y Z # 

Year 3 Tabs (ver.2)

Busted Tabs
 Rating:
4/5 (4 votes)
Year 3 lessons Tabs too difficult? Try these video lessons and learn fast
1
                In the intro and chorus you strum the chords and i hope you
like my tab. Listen to the song to get the timing and rythym...
Please don't forget to rate!

Intro:

E-2-----3-----
B-3-----3-----
G-2--2--0--2--
D----2--0--2--
A----0--2--0--
E-------3-----
   
Play the intro twice.
                                       
Verse:

E-2-2-------3-3-3-----
B-3-3-------3-3-3-----
G-2-2--2-2--0-0-0--2--
D------2-2--0-0-0--2--
A------0-0--2-2-2--0--
E-----------3-3-3-----

Play the verse three times.

Pre-chorus:

E-2-2-2-2-2-2-2-2-------------------3-3-3-3-3-3-3-3-3-3-3-3-3-------
B-3-3-3-3-3-3-3-3-------------------3-3-3-3-3-3-3-3-3-3-3-3-3-------
G-2-2-2-2-2-2-2-2--2-2-2-2-2-2-2-2--0-0-0-0-0-0-0-0-0-0-0-0-0--2-2--
D------------------2-2-2-2-2-2-2-2--0-0-0-0-0-0-0-0-0-0-0-0-0--2-2--
A------------------0-0-0-0-0-0-0-0--2-2-2-2-2-2-2-2-2-2-2-2-2--0-0--
E-----------------------------------3-3-3-3-3-3-3-3-3-3-3-3-3-------

Play te pre-chorus once

Chorus:

E-2-----3-----
B-3-----3-----
G-2--2--0--2--
D----2--0--2--
A----0--2--0--
E-------3-----

Play the chorus four times.
            
Submit corrections

comments powered by Disqus
↑ Back to top | Busted Tabs for Year 3. Lyrics for acoustic guitar and electric guitar. 1 Tablatures and chords are parodies/interpretations of the original songs. You may use it for private study, scholarship, research or language learning purposes only