» » »

Busted, Who's David Tabs

Artists:  A B C D E F G H I J K L M N O P Q R S T U V W X Y Z # 

Who's David Tabs

(ver. 1)
Busted Tabs
 Rating:
4/5 (4 votes)
    Who's David lessons Tabs too difficult? Try these video lessons and learn fast

WWW.AZCHORDS.COM | Busted Tabs - Who's David Tabs (ver. 1)


                One of The Guitars plays 11 and 9 on the G string and its palm muted.
I think you play the first part of the chorus twice and then the
second part once. im not quite sure about the timing its quite
difficult so play along to the song. It sounds pretty close to me
so and please don't forget to rate!...


Intro/Verses:

E-----------------------------------------------------
B-----------------------------------------------------
G-9-9-9-9-9-9-9-9--4-4-4-4-4-4-4-4--2-2-2-2-2-2-2-2---
D-9-9-9-9-9-9-9-9--4-4-4-4-4-4-4-4--2-2-2-2-2-2-2-2---       
A-7-7-7-7-7-7-7-7--2-2-2-2-2-2-2-2--0-0-0-0-0-0-0-0---
E-----------------------------------------------------
PM.................................................

                     
Pre Chorus:

E---------------------------------------------
B---------------------------------------------
G-6-6-6-6-6-6-6-6--4-4-4-4-4-4-4-4--2-2-2-2---
D-6-6-6-6-6-6-6-6--4-4-4-4-4-4-4-4--2-2-2-2---      
A-4-4-4-4-4-4-4-4--2-2-2-2-2-2-2-2--0-0-0-0---
E---------------------------------------------
PM.........................................


Chorus:

E--------------------------------------------
B--------------------------------------------
G-9-x-x-9-x-x-4-x-x-4-x-x--2-2-2-2--4-x-x-4--
D-9-x-x-7-x-x-4-x-x-4-x-x--2-2-2-2--4-x-x-4--    
A-7-x-x-7-x-x-2-x-x-4-x-x--0-0-0-0--2-x-x-2--
E--------------------------------------------

E---------------------------------------------
B---------------------------------------------
G-6-6-6-6-6-6-6-6--4-4-4-4-4-4-4-4--2-2-2-2---
D-6-6-6-6-6-6-6-6--4-4-4-4-4-4-4-4--2-2-2-2---      
A-4-4-4-4-4-4-4-4--2-2-2-2-2-2-2-2--0-0-0-0---
E---------------------------------------------
            
Submit corrections

↑ Back to top | Busted Tabs for Who's David. Lyrics for acoustic guitar and electric guitar. Tablatures and chords are parodies/interpretations of the original songs. You may use it for private study, scholarship, research or language learning purposes only