» » »

Busted, Loser Kid Tabs (ver.1)

Artists:  A B C D E F G H I J K L M N O P Q R S T U V W X Y Z # 

Loser Kid Tabs (ver.1)

Busted Tabs
Rating:
0/5 (0 votes)
Loser Kid lessons Tabs too difficult? Try these video lessons and learn fast
                This is a cool song by Busted that i love playing.
You can also use proper chords like i do fo this song. 
I have written them aswell s power chords fo those of you
that prefer them. Please rate this tab.

Intro/Verses:

  A                E        F#m              D
E-------------------------------------------------------------
B-------------------------------------------------------------
G-2-2-2-2-2-2-2-2--1-1-1-1-------------------7-7-7-7-7-7-7-7--
D-2-2-2-2-2-2-2-2--2-2-2-2--4-4-4-4-4-4-4-4--7-7-7-7-7-7-7-7--
A-0-0-0-0-0-0-0-0--2-2-2-2--4-4-4-4-4-4-4-4--5-5-5-5-5-5-5-5-- 
E---------------------------2-2-2-2-2-2-2-2-------------------
                                         
End of Chorus:

  A
E----------------------------------
B----------------------------------
G-2-2-2-2-2-2-2-2-2-2-2-2-2-2-2-2--
D-2-2-2-2-2-2-2-2-2-2-2-2-2-2-2-2--     
A-0-0-0-0-0-0-0-0-0-0-0-0-0-0-0-0--
E----------------------------------

Chorus:

  A                E        F#m              D
E-------------------------------------------------------------
B-------------------------------------------------------------
G-2-2-2-2-2-2-2-2--1-1-1-1-------------------7-7-7-7-7-7-7-7--
D-2-2-2-2-2-2-2-2--2-2-2-2--4-4-4-4-4-4-4-4--7-7-7-7-7-7-7-7--
A-0-0-0-0-0-0-0-0--2-2-2-2--4-4-4-4-4-4-4-4--5-5-5-5-5-5-5-5-- 
E---------------------------2-2-2-2-2-2-2-2-------------------
            
Submit corrections

comments powered by Disqus
↑ Back to top | Busted Tabs for Loser Kid. Lyrics for acoustic guitar and electric guitar. Tablatures and chords are parodies/interpretations of the original songs. You may use it for private study, scholarship, research or language learning purposes only