» » »

Last Christmas Tabs (ver.1)

Artists:  A B C D E F G H I J K L M N O P Q R S T U V W X Y Z # 

Last Christmas Tabs (ver.1)

Busted
Rating:
5/5 (1 vote)

Hard to play? Try these video lessons and learn fast.
                (Live)
HI this is the electric version of last christmas from busted


HI I'M MICHEL TEELEN AND I HAVE A TAB FOR YOU I HOPE YOU ENJOY HIM.


Chorus (x2)
D
Last Christmas, I gave you my heart
B
But the very next day, You gave it away
E
This year, to save me from tears
A
I'll give it to someone special

D
Once bitten and twice shy
B
I keep my distance but you still catch my eye
E
Tell me baby do you recognise me?
A
Well it's been a year, it doesn't surprise me

D~~
(Merry Christmas!)
I wrapped it up and sent it
B
With a note saying "I Love You" I meant it
E
Now I know what a fool I've been
A
But if you kissed me now I know you'd fool me again

Chorus X2

Solo:

E---5---------------------------5-2-0-----------3-0-------------------------|
B---------------------------------------------------------------------------|
G-2---2-----2--4-6-7-9-7-4---------- 7--0----4------------------------------|
D-------------------------------------------------------9--7---7-5-4-2-0----|
A---------------------------------------------------------------------------|
E---------------------------------------------------------------------------|

D
A crowded room, friends with tired eyes
B
I'm hiding from you and your soul of ice
E
My God I thought you were someone to rely on
A
Me? I guess I was a shoulder to cry on

D
A face on a lover with a fire in his heart
B
A man undercover but you tore me apart
E                                         A
Oeh OEH OEH Now I've found a real love you'll never fool me again

Solo:

E---5---------------------------5-2-0-----------3-0-------------------------|
B---------------------------------------------------------------------------|
G-2---2-----2--4-6-7-9-7-4---------- 7--0----4------------------------------|
D-------------------------------------------------------9--7---7-5-4-2-0----|
A---------------------------------------------------------------------------|
E---------------------------------------------------------------------------|

CHORUS 2X (first time only a Voice)
            
Hard to play? Try these video lessons and learn fast. | Correct




comments powered by Disqus
↑ Back to top | Tablatures and chords are parodies/interpretations of the original songs. You may use it for private study, scholarship, research or language learning purposes only